Oops, an error
Loading. Please wait.

El Último tab

by WarCry
308 views 6 this week
no commentswrite comment
1 2 3 4 5
3 more votes to show rating
add to favorites
×
Save as Personal and add changes to this tab that will be seen only by you. Learn more ›
×
You can save this tab as Personal to edit and correct it or add notes. All changes will be seen only by you. Learn more »
launch autoscroll
font size
0
reset
how to read this tab
guitar tuner
edit
Autoscroll
slow
fast
+/-
esc
set tempo
stop
Aqui les dejo otro buen tema de warcry espero ke les guste esta transcripcion

INTRO 1er parte

(se deja sonando la nota)
1--14--14------14------------------------------------------------
2----------------------------------------7h8-7-5-7---5-----------
3---------------------9h11---11bend-9----------------7---5-------
4--------------------------------------------------------7--7-5--
5----------------------------------------------------------------
6----------------------------------------------------------------

2da parte
                                         pm....pm..... pm....pm..
1-----------------------------------------------------------------
2--7h8-7-5-7---5--------------7h8-7-5-7---5-------------5---------
3--------------7---5----------------------7---5---------7---------
4------------------7--7-5---------------------7--7-5-------7--7-5-
5----------------------------------------------------------5------
6-----------------------------------------------------------------


3a parte
1----------------------------------------------------------------------
2--7h8-7-5-7---5--------------7h8-7-5-7---5-------------5------7-8-7---
3--------------7---5----------------------7---5-----------7------------
4------------------7--7-5---------------------7--7-5-------------------
5----------------------------------------------------------------------
6----------------------------------------------------------------------


y esto acompaña al intro (entra a los 15seg)
x2
1--x----x---x---x----------x----x----x----x-----
2--x----x---x---x----------x----x----x----x-----
3--x----x---x---x----------x----x----x----x-----
4--4----x---x---2----------4----x----x----2-----
5--2----7---5---2----------2----7----5----2-----
6--x----5---3---0----------x----5----3----0-----


Esto lo hacen las guitarras juntas  ha los [40seg]
              x2                     x2
1-----------x-x-x-x-x-------x----x-x-x-x-x------x-x--x----x-----------------
2-----------x-x-x-x-x-------x----x-x-x-x-x------x-x--x----x-----------------
3-----------x-x-x-x-x-------x----x-x-x-x-x------x-x--x----x-----------------
4-----------x-x-x-x-x-------x----x-x-x-x-x------x-x--x----x-----------------
5-----------7-9-7-9-7-------7----6-7-6-7-6------7-7--5----2-----------------
6--0-2-3-5--5-7-5-7-5-------5----4-5-4-5-4------5-5--3----0--0-2-3-2-0-2-0--


VERSO 1
El suelo ifinito contempla el despertar de una era
aquella en que todo lo bello renacera para no morir jamas
pude imaginar que veria el fin de los tiempos
Hoy ya no hay dolor pena ho maldad tan solo siento
la calma que asola la ciudad donde nadie avita ya
y en mi corazon la nostaljia recuerda viejos tiempos


CORO

pm..Nooooo esto no es real es una vicion ho tan solo un sueño
1-x-x-x-x-x-x-x-x-x-x----x-x-x-x-x-----x-x-x-x-x-
2-x-x-x-x-x-x-x-x-x-x----x-x-x-x-x-----x-x-x-x-x-
3-x-x-x-x-x-x-x-x-x-x----x-x-x-x-x-----x-x-x-x-x-
4-x-x-x-x-x-x-x-x-x-x----x-x-x-x-x-----x-x-x-x-x-
5-9-9-9-9-9-7-7-7-7-7----5-5-5-5-5-----2-4-5-7-9-
6-7-7-7-7-7-5-5-5-5-5----3-3-3-3-3-----0-2-3-5-7-


pm..Esta calma no es tranquilidad es olor ha
1-x-x-x-x-x-x-x-x-x-x----x-x-x-x-x-----x-x-x-x-x-
2-x-x-x-x-x-x-x-x-x-x----x-x-x-x-x-----x-x-x-x-x-
3-x-x-x-x-x-x-x-x-x-x----x-x-x-x-x-----x-x-x-x-x-
4-x-x-x-x-x-x-x-x-x-x----x-x-x-x-x-----x-x-x-x-x-
5-9-9-9-9-9-7-7-7-7-7----5-5-5-5-5-----2-4-5-7-9-
6-7-7-7-7-7-5-5-5-5-5----3-3-3-3-3-----0-2-3-5-7-

X3
 muerteeeeee x2              x2
1---x-x-x-x-x-------x----x-x-x-x-x------x-x--x----x-----------------
2---x-x-x-x-x-------x----x-x-x-x-x------x-x--x----x-----------------
3---x-x-x-x-x-------x----x-x-x-x-x------x-x--x----x-----------------
4---x-x-x-x-x-------x----x-x-x-x-x------x-x--x----x-----------------
5---7-9-7-9-7-------7----6-7-6-7-6------7-7--5----2-----------------
6---5-7-5-7-5-------5----4-5-4-5-4------5-5--3----0--0-2-3-2-0-2-0--

VERSO 2
Hoy las estrellas son la unica luz
que alumbra mis miedos se que ya no hay nada a lo
que temer por todo ha muerto

Señor si es tu voluntad mandame al mismo infierno (les debo el riff
ke hace en esta parte)

depues va un solo de guitarra
ke va hasi

parte 1

 ho hohohoho ho ho hoho ho hoho
1---------------------------------
2---------------------------------
3-9---7-6h7-------6-7--9h11-9-7-9-
4-----------9--7-9----------------
5---------------------------------
6---------------------------------


parte 2
ho hohhohoho ho ho hoho ho hohohoho
1----------------7-10------9-12--
2-10--8-7h8-----8--------10------
3----------9-7-9-------11--------
4--------------------------------
5--------------------------------
6--------------------------------

Dspues se repite el coro y fin
espero ke le guste ya ke es mi la primera
vez ke subo una traduccion peticiones ho dudas
ha SOLRAK_SA@  DOCTORSKA@

            
            
Suggest correction
Creating personal tab
Creating personal tab
You can edit any tab online and save it as your Personal.

You can edit, replace or remove any tab part or add personal notes – all changes will be seen only by you.

Personal tabs can be accessed anytime from any device, even offline.
Learn more »
Give kudos to tab author, rate the tab!
1 2 3 4 5
comments
print report bad tab
guest
Wanna post a correction for this tab? Suggest correction