Oops, an error
Loading. Please wait.

Espíritu De Amor bass

version 1
version 1

Whole song

Interactive

by WarCry
80 views 1 this week
no commentswrite comment
1 2 3 4 5
3 more votes to show rating
add to favorites
×
Save as Personal and add changes to this tab that will be seen only by you. Learn more ›
×
You can save this tab as Personal to edit and correct it or add notes. All changes will be seen only by you. Learn more »
launch autoscroll
font size
0
reset
guitar tuner
edit
Autoscroll
slow
fast
+/-
esc
set tempo
stop
NOTA:

Espero y te ayude en algo esta tab.
Si necesitas una tab en especial, escríbeme o visita...

*******************************************
*  *
*******************************************

- Revisa la afinación de esta canción en especial
- Pon atención a las instrucciones que están al final
- CALIFICA SOLO SI LEÍSTE "EL MANUAL"


              W                   H        H
F#||-------|-------------------|--------------------|
C#||-------|-------------------|--------------------|
G#||-------|-------------------|--3-----------------|
D#||-------|--0----------------|-----------3--------|


  W                   H        H           W
-------------------|--------------------|-------------------|
-------------------|--------------------|-------------------|
--5----------------|--3--------5--------|-------------------|
-------------------|--------------------|--0----------------|


  H        H           W                   H        H
--------------------|-------------------|--------------------|
--------------------|-------------------|--------------------|
--3-----------------|--5----------------|--3--------5--------|
-----------3--------|-------------------|--------------------|


  W                   H        H           W
-------------------|--------------------|-------------------|
-------------------|--------------------|-------------------|
-------------------|--3-----------------|--5----------------|
--0----------------|-----------3--------|-------------------|


  H        H           W                   H        H
--------------------|-------------------|--------------------|
--------------------|-------------------|--------------------|
--3--------5--------|-------------------|--3-----------------|
--------------------|--0----------------|-----------3--------|


  H.           E  E     W                   W
---------------------|-------------------|-------------------|
---------------------|-------------------|-------------------|
--5------------3--3--|--L----------------|--L----------------|
---------------------|-------------------|-------------------|


  H.              E  Q    E  E  E  Q       E  Q    E  E  E  Q
---------------|------------------------|------------------------|
---------------|------------------------|------------------------|
--L------------|--5--7----7--7--7--7----|--5--7----7--7--7--7----|
---------------|------------------------|------------------------|


  E  H        Q.        E  H        Q.        E  Q    E  E  E  Q
---------------------|---------------------|------------------------|
---------------------|---------------------|------------------------|
--7--3---------------|-----5--------3------|--5--7----7--7--7--7----|
--------------3------|--L------------------|------------------------|


  E  Q    E  E  E  Q       E  H        Q.        E  H        Q.
------------------------|---------------------|---------------------|
------------------------|---------------------|---------------------|
--5--7----7--7--7--7----|--7--3---------------|-----5--------3------|
------------------------|--------------3------|--L------------------|


  E  Q    E  E  E  Q       E  Q    E  E  E  Q
------------------------|------------------------|
------------------------|------------------------|
--5--7----7--7--7--7----|--5--7----7--7--7--7----|
------------------------|------------------------|


  E  H        Q.        E  H        H        E
---------------------|--------------------------|
---------------------|--------------------------|
--7--3---------------|-----5--------3--------L--|
--------------3------|--L-----------------------|


  S S S S S S S S S S S S S S S S    S S S S S S S S S S S S S S S S
----------------------------------|----------------------------------|
----------------------------------|----------------------------------|
--3-3-3-3-3-3-3-3-3-3-3-3-3-3-3-3-|--5-5-5-5-5-5-5-5-5-5-5-5-5-5-5-5-|
----------------------------------|----------------------------------|


  S S S S S S S S S S S S S S S S    S S S S S S S S S S S S S S S S
----------------------------------|----------------------------------|
----------------------------------|----------------------------------|
--7-7-7-7-7-7-7-7-7-7-7-7-7-7-7-7-|--5-5-5-5-5-5-5-5-5-5-5-5-5-5-5-5-|
----------------------------------|----------------------------------|


  S S S S S S S S S S S S S S S S    S S S S S S S S S S S S S S S S
----------------------------------|----------------------------------|
----------------------------------|----------------------------------|
--3-3-3-3-3-3-3-3-3-3-3-3-3-3-3-3-|--5-5-5-5-5-5-5-5-5-5-5-5-5-5-5-5-|
----------------------------------|----------------------------------|


  S S S S S S S S S S S S S S S S    S S S S S S S S S S S S S S S S
----------------------------------|----------------------------------|
----------------------------------|----------------------------------|
--2-2-2-2-2-2-3-3-3-3-2-2-2-2-0-0-|--2-2-2-2-2-2-3-3-3-3-2-2-2-2-0-0-|
----------------------------------|----------------------------------|


  S S S S S S S S S S S S S S S S    S S S S S S S S S S S S S S S S
----------------------------------|----------------------------------|
----------------------------------|----------------------------------|
--3-3-3-3-3-3-3-3-3-3-3-3-3-3-3-3-|--5-5-5-5-5-5-5-5-5-5-5-5-5-5-5-5-|
----------------------------------|----------------------------------|


  S S S S S S S S S S S S S S S S    S S S S S S S S S S S S S S S S
----------------------------------|----------------------------------|
----------------------------------|----------------------------------|
--7-7-7-7-7-7-7-7-7-7-7-7-7-7-7-7-|--5-5-5-5-5-5-5-5-5-5-5-5-5-5-5-5-|
----------------------------------|----------------------------------|


  S S S S S S S S S S S S S S S S    S S S S S S S S S S S S S S S S
----------------------------------|----------------------------------|
----------------------------------|----------------------------------|
--3-3-3-3-3-3-3-3-3-3-3-3-3-3-3-3-|--5-5-5-5-5-5-5-5-5-5-5-5-5-5-5-5-|
----------------------------------|----------------------------------|


  S S S S S S S S S S S S S S S S    S S S S S S S S S S S S S S S S
----------------------------------|----------------------------------|
----------------------------------|----------------------------------|
--2-2-2-2-2-2-3-3-3-3-2-2-2-2-0-0-|--2-2-2-2-2-2-3-3-3-3-2-2-2-2-0-0-|
----------------------------------|----------------------------------|


  S S S S S S S S S S S S S S S S    E  E  E  E  E  E  E  E
----------------------------------|--------------------------|
----------------------------------|--------------------------|
--2-2-2-2-2-2-3-3-3-3-2-2-2-2-0-0-|--2--2-----2--2-----2--2--|
----------------------------------|--------------------------|


  W                   H        H           W
-------------------|--------------------|-------------------|
-------------------|--------------------|-------------------|
--7----------------|--3-----------------|--5----------------|
-------------------|-----------3--------|-------------------|


  H        H           W                   H        H
--------------------|-------------------|--------------------|
--------------------|-------------------|--------------------|
--3--------5--------|--7----------------|--3-----------------|
--------------------|-------------------|-----------3--------|


  W                   E  Q.     E  Q.        W
-------------------|----------------------|-------------------|
-------------------|----------------------|-------------------|
--5----------------|--3--3------5--5------|--7----------------|
-------------------|----------------------|-------------------|


  H        H           W                   H        H
--------------------|-------------------|--------------------|
--------------------|-------------------|--------------------|
--3-----------------|--5----------------|--3--------5--------|
-----------3--------|-------------------|--------------------|


  W                   H        H           W
-------------------|--------------------|-------------------|
-------------------|--------------------|-------------------|
--7----------------|--3-----------------|--5----------------|
-------------------|-----------3--------|-------------------|


  W                   S S S S S S S S S S S S S S S S
-------------------|----------------------------------|
-------------------|----------------------------------|
--5----------------|--3-3-3-3-3-3-3-3-3-3-3-3-3-3-3-3-|
-------------------|----------------------------------|


  S S S S S S S S S S S S S S S S    S S S S S S S S S S S S S S S S
----------------------------------|----------------------------------|
----------------------------------|----------------------------------|
--5-5-5-5-5-5-5-5-5-5-5-5-5-5-5-5-|--7-7-7-7-7-7-7-7-7-7-7-7-7-7-7-7-|
----------------------------------|----------------------------------|


  S S S S S S S S S S S S S S S S    S S S S S S S S S S S S S S S S
----------------------------------|----------------------------------|
----------------------------------|----------------------------------|
--5-5-5-5-5-5-5-5-5-5-5-5-5-5-5-5-|--3-3-3-3-3-3-3-3-3-3-3-3-3-3-3-3-|
----------------------------------|----------------------------------|


  S S S S S S S S S S S S S S S S    S S S S S S S S S S S S S S S S
----------------------------------|----------------------------------|
----------------------------------|----------------------------------|
--5-5-5-5-5-5-5-5-5-5-5-5-5-5-5-5-|--2-2-2-2-2-2-3-3-3-3-2-2-2-2-0-0-|
----------------------------------|----------------------------------|


  S S S S S S S S S S S S S S S S    S S S S S S S S S S S S S S S S
----------------------------------|----------------------------------|
----------------------------------|----------------------------------|
--2-2-2-2-2-2-3-3-3-3-2-2-2-2-0-0-|--3-3-3-3-3-3-3-3-3-3-3-3-3-3-3-3-|
----------------------------------|----------------------------------|


  S S S S S S S S S S S S S S S S    S S S S S S S S S S S S S S S S
----------------------------------|----------------------------------|
----------------------------------|----------------------------------|
--5-5-5-5-5-5-5-5-5-5-5-5-5-5-5-5-|--7-7-7-7-7-7-7-7-7-7-7-7-7-7-7-7-|
----------------------------------|----------------------------------|


  S S S S S S S S S S S S S S S S    S S S S S S S S S S S S S S S S
----------------------------------|----------------------------------|
----------------------------------|----------------------------------|
--5-5-5-5-5-5-5-5-5-5-5-5-5-5-5-5-|--3-3-3-3-3-3-3-3-3-3-3-3-3-3-3-3-|
----------------------------------|----------------------------------|


  S S S S S S S S S S S S S S S S    S S S S S S S S S S S S S S S S
----------------------------------|----------------------------------|
----------------------------------|----------------------------------|
--5-5-5-5-5-5-5-5-5-5-5-5-5-5-5-5-|--2-2-2-2-2-2-3-3-3-3-2-2-2-2-0-0-|
----------------------------------|----------------------------------|


  S S S S S S S S S S S S S S S S    S S S S S S S S S S S S S S S S
----------------------------------|----------------------------------|
----------------------------------|----------------------------------|
--2-2-2-2-2-2-3-3-3-3-2-2-2-2-0-0-|--2-2-2-2-2-2-3-3-3-3-2-2-2-2-0-0-|
----------------------------------|----------------------------------|


  |----3----|    |----3----|       |----3----|    |----3----|
  Q    Q    Q    Q    Q    Q       Q    Q    Q    Q    Q    Q
--------------------------------|--------------------------------|
--------------------------------|--------------------------------|
--2----3----2----0--------------|--0----2----0-------------------|
----------------------3----2----|-----------------3----2----0----|


  E  E  Q    E  E  Q       E  E  E  E  E  E  E  E
------------------------|--------------------------|
------------------------|--------------------------|
--3--3-------3--3-------|--3--3--3--3--3--3--3--3--|
------------------------|--------------------------|


  E  E  E  E  E  E  E  E     E  E  E  E  E  E  E  E
--------------------------|--------------------------|
--------------------------|--------------------------|
--5--5--5--5--5--5--5--5--|--7--7--7--7--7--7--7--7--|
--------------------------|--------------------------|


  E  E  E  E  E  E  E  E     E  E  E  E  E  E  E  E
--------------------------|--------------------------|
--------------------------|--------------------------|
--7--7--7--7--7--7--7--7--|--3--3--3--3--3--3--3--3--|
--------------------------|--------------------------|


  E  E  E  E  E  E  E  E     E  E  E  E  E  E  E  E
--------------------------|--------------------------|
--------------------------|--------------------------|
--0--0--0--0--0--0--0--0--|--------------------------|
--------------------------|--3--3--3--3--3--3--3--3--|


  E  E  E  E  E  E  E  E     E  E  E  E  E  E  E  E
--------------------------|--------------------------|
--------------------------|--------------------------|
--------------------------|--3--3--3--3--3--3--3--3--|
--2--2--2--2--2--2--2--2--|--------------------------|


  E  E  E  E  E  E  E  E     E  E  E  E  E  E  E  E
--------------------------|--------------------------|
--------------------------|--------------------------|
--5--5--5--5--5--5--5--5--|--7--7--7--7--7--7--7--7--|
--------------------------|--------------------------|


  E  E  E  E  E  E  E  E     E  E  E  E  E  E  E  E
--------------------------|--------------------------|
--------------------------|--------------------------|
--7--7--7--7--7--7--7--7--|--3--3--3--3--3--3--3--3--|
--------------------------|--------------------------|


  E  E  E  E  E  E  E  E     E  E  E  E  E  E  E  E
--------------------------|--------------------------|
--------------------------|--------------------------|
--0--0--0--0--0--0--0--0--|--------------------------|
--------------------------|--3--3--3--3--3--3--3--3--|


  E  E  E  E  E  E  E  E     E  E  E  E  E  E  E  E
--------------------------|--------------------------|
--------------------------|--------------------------|
--------------------------|--3--3--3--3--3--3--3--3--|
--2--2--2--2--2--2--2--2--|--------------------------|


  E  E  E  E  E  E  E  E     S S S S S S S S S S S S S S S S
--------------------------|----------------------------------|
--------------------------|----------------------------------|
--3--3--3--3--3--5--5--5--|--0-0-0-0-0-0-0-0-0-0-0-0-0-0-0-0-|
--------------------------|----------------------------------|


  S S S S S S S S S S S S S S S S    S S S S S S S S S S S S S S S S
----------------------------------|----------------------------------|
----------------------------------|----------------------------------|
----------------------------------|----------------------------------|
--3-3-3-3-3-3-3-3-3-3-3-3-3-3-3-3-|--2-2-2-2-2-2-2-2-2-2-2-2-2-2-2-2-|


  S S S S S S S S S S S S S S S S    S S S S S S S S S S S S S S S S
----------------------------------|----------------------------------|
----------------------------------|----------------------------------|
--5-5-5-5-5-5-5-5-5-5-5-5-5-5-5-5-|----------------------------------|
----------------------------------|--1-1-1-1-1-1-1-1-1-1-1-1-1-1-1-1-|


  S S S S S S S S S S S S S S S S    S S S S S S S S S S S S S S S S
----------------------------------|----------------------------------|
----------------------------------|----------------------------------|
----------------------------------|----------------------------------|
--2-2-2-2-2-2-2-2-2-2-2-2-2-2-2-2-|--3-3-3-3-3-3-3-3-3-3-3-3-3-3-3-3-|


  S S S S S S S S S S S S S S S S    S S S S S S S S S S S S S S S S
----------------------------------|----------------------------------|
----------------------------------|----------------------------------|
----------------------------------|--0-0-0-0-0-0-0-0-0-0-0-0-0-0-0-0-|
--4-4-4-4-4-4-4-4-4-4-4-4-4-4-4-4-|----------------------------------|


  S S S S S S S S S S S S S S S S    S S S S S S S S S S S S S S S S
----------------------------------|----------------------------------|
----------------------------------|----------------------------------|
----------------------------------|----------------------------------|
--3-3-3-3-3-3-3-3-3-3-3-3-3-3-3-3-|--2-2-2-2-2-2-2-2-2-2-2-2-2-2-2-2-|


  S S S S S S S S S S S S S S S S    S S S S S S S S S S S S S S S S
----------------------------------|----------------------------------|
----------------------------------|----------------------------------|
--5-5-5-5-5-5-5-5-5-5-5-5-5-5-5-5-|----------------------------------|
----------------------------------|--1-1-1-1-1-1-1-1-1-1-1-1-1-1-1-1-|


  S S S S S S S S S S S S S S S S    S S S S S S S S S S S S S S S S
----------------------------------|----------------------------------|
----------------------------------|----------------------------------|
----------------------------------|----------------------------------|
--2-2-2-2-2-2-2-2-2-2-2-2-2-2-2-2-|--3-3-3-3-3-3-3-3-3-3-3-3-3-3-3-3-|


  S S S S S S S S S S S S S S S S    E  E  E  E  E  E  E  E
----------------------------------|--------------------------|
----------------------------------|--------------------------|
----------------------------------|--0--0--0--0--0--0--0--0--|
--4-4-4-4-4-4-4-4-4-4-4-4-4-4-4-4-|--------------------------|


  E  E  E  E  E  E  E  E     E  E  E  E  E  E  E  E
--------------------------|--------------------------|
--------------------------|--------------------------|
--2--2--2--2--2--2--2--2--|--3--3--3--3--3--3--3--3--|
--------------------------|--------------------------|


  E  E  E  E  E  E  E  E     E  E  E  E  E  E  E  E
--------------------------|--------------------------|
--------------------------|--------------------------|
--5--5--5--5--5--5--5--5--|--8--8--8--8--8--8--8--8--|
--------------------------|--------------------------|


  E  E  E  E  E  E  E  E      E   E   E   E   E   E   E   E
--------------------------|----------------------------------|
--------------------------|----------------------------------|
--9--9--9--9--9--9--9--9--|--10--10--10--10--10--10--10--10--|
--------------------------|----------------------------------|


  E  E  E  E  E  E  E  E     E
--------------------------|-----|-------|-------|-------|-------|
--------------------------|-----|-------|-------|-------|-------|
--7--7--7--7--7--7--7--7--|--7--|-------|-------|-------|-------|
--------------------------|-----|-------|-------|-------|-------|


                                  E  E     E  E  Q    E  E  Q
-------|-------|-------|-------|--------|------------------------|
-------|-------|-------|-------|--------|------------------------|
-------|-------|-------|-------|--7--7--|--3--3------------------|
-------|-------|-------|-------|--------|-------------3--3-------|


  E  E     E  E  Q    E  E  Q       E  E     E  E  Q    E  E  Q
--------|------------------------|--------|------------------------|
--------|------------------------|--------|------------------------|
--5--5--|--3--3-------5--5-------|--7--7--|--3--3------------------|
--------|------------------------|--------|-------------3--3-------|


  E  E     E  E  Q    E  E  Q       E  E  E  E  E  E  E  E
--------|------------------------|--------------------------|
--------|------------------------|--------------------------|
--5--5--|--3--3-------5--5-------|--7--7--7--7--7--7--7--7--|
--------|------------------------|--------------------------|


  E  E  E  E  E  E  E  E     E  E  E  E  E  E  E  E
--------------------------|--------------------------|
--------------------------|--------------------------|
--3--3--3--3--------------|--5--5--5--5--5--5--5--5--|
--------------3--3--3--3--|--------------------------|


  E  E  E  E  E  E  E  E     E  E  E  E  E  E  E  E
--------------------------|--------------------------|
--------------------------|--------------------------|
--3--3--3--3--5--5--5--5--|--7--7--7--7--7--7--7--7--|
--------------------------|--------------------------|


  E  E  E  E  E  E  E  E     E  E  E  E  E  E  E  E
--------------------------|--------------------------|
--------------------------|--------------------------|
--3--3--3--3--------------|--5--5--5--5--5--5--5--5--|
--------------3--3--3--3--|--------------------------|


  E  E  E  E  E  E  E  E     E  E  E  E  E  E  E  E
--------------------------|--------------------------|
--------------------------|--------------------------|
--3--3--3--3--5--5--5--5--|--7--7--7--7--7--7--7--7--|
--------------------------|--------------------------|


  E  E  E  E  E  E  E  E     E  E  E  E  E  E  E  E
--------------------------|--------------------------|
--------------------------|--------------------------|
--3--3--3--3--------------|--5--5--5--5--5--5--5--5--|
--------------3--3--3--3--|--------------------------|


  E  E  E  E  E  E  E  E     E  E  E  E  E  E  E  E
--------------------------|--------------------------|
--------------------------|--------------------------|
--3--3--3--3--5--5--5--5--|--7--7--7--7--7--7--7--7--|
--------------------------|--------------------------|


  E  E  E  E  E  E  E  E     E  E  E  E  E  E  E  E
--------------------------|--------------------------|
--------------------------|--------------------------|
--3--3--3--3--------------|--5--5--5--5--5--5--5--5--|
--------------3--3--3--3--|--------------------------|


  E  E  E  E  E  E  E  E
--------------------------|-------||
--------------------------|-------||
--3--3--3--3--5--5--5--5--|-------||
--------------------------|-------||


Duration Legend
---------------
W - whole
H - half
Q - quarter
E - 8th
S - 16th
T - 32nd
X - 64th
. - note dotted
|-n-|  - n-tuplets


Tablature Legend
----------------
L - tied note
x - dead note
g - grace note
(n) - ghost note
> - accentuded note
NH - natural harmonic
AH - artificial harmonic
TH - tapped harmonic
SH - semi harmonic
PH - pitch harmonic
h - hammer on
p - pull off
b - bend
br - bendRelease
pb - preBend
pbr - preBendRelease
brb - bendReleaseBend
n/ - tremolo bar dip
n - tremolo bar dive
-/n - tremolo bar Release up
/n - tremolo bar inverted dip
/n - tremolo bar return
-n - tremolo bar Release down
S - shift slide
s - legato slide
/ -  slide into from below or out of upwards
 -  slide into from above or out of downwards
~ - vibrato
W - wide vibrato
tr - trill
TP - tremolo picking
T - tapping
S - slap
P - pop
< - fade in
^ - brush up
v - brush down
Suggest correction
Creating personal tab
Creating personal tab
You can edit any tab online and save it as your Personal.

You can edit, replace or remove any tab part or add personal notes – all changes will be seen only by you.

Personal tabs can be accessed anytime from any device, even offline.
Learn more »
Give kudos to tab author, rate the tab!
1 2 3 4 5
comments
print report bad tab
guest
Wanna post a correction for this tab? Suggest correction