Oops, an error
Loading. Please wait.

Señor tab

by WarCry
88 views 1 this week
no commentswrite comment
1 2 3 4 5
3 more votes to show rating
add to favorites
×
Save as Personal and add changes to this tab that will be seen only by you. Learn more ›
×
You can save this tab as Personal to edit and correct it or add notes. All changes will be seen only by you. Learn more »
launch autoscroll
font size
0
reset
how to read this tab
guitar tuner
edit
Autoscroll
slow
fast
+/-
esc
set tempo
stop
NOTA:

Espero y te ayude en algo esta tab.
Si necesitas una tab en especial, escríbeme o visita...

*******************************************
*  *
*******************************************

- Pon atención a las instrucciones que están al final
- contiene las 2 guitarras
- CALIFICA SOLO SI LEÍSTE "EL MANUAL"-

---------------GUITARRA 1----------------------------


     W                   W                   W
E||-------------------|-------------------|-------------------|
B||-------------------|-------------------|-------------------|
G||-------------------|-------------------|-------------------|
D||-------------------|-------------------|-------------------|
A||-------------------|-------------------|-------------------|
E||-------------------|-------------------|-------------------|


  W                   W                   W
-------------------|-------------------|-------------------|
-------------------|-------------------|-------------------|
-------------------|-------------------|-------------------|
-------------------|-------------------|-------------------|
-------------------|-------------------|-------------------|
-------------------|-------------------|-------------------|


  W                   W                   W
-------------------|-------------------|-------------------|
-------------------|-------------------|-------------------|
-------------------|-------------------|-------------------|
-------------------|-------------------|-------------------|
-------------------|-------------------|-------------------|
-------------------|-------------------|-------------------|


   E  E  E  E  E.  E.  E      E  E  E  E  E.  E.  E
--------------------------|--------------------------|
---------0--2--3---2---0--|--------------------------|
--------------------------|---------6--7--9---7---6--|
--------------------------|------7-------------------|
------9-------------------|--------------------------|
--19----------------------|--21----------------------|


   E  E  E  E   E.  E.  E     E  E  E  E  E.  E.  E
---------------------------|-------------------------|
---------------------------|-------------------------|
---------7--9--11---9---7--|--6-----6--7--9---7---6--|
------7--------------------|-----7-------------------|
---------------------------|-------------------------|
--22-----------------------|-------------------------|


  E  E  E  E  E.  E.  E     E  E  E  E  E.  E.  E
-------------------------|-------------------------|
--0-----0--2--3---2---0--|-------------------------|
-------------------------|--6-----6--7--9---7---6--|
-------------------------|-----7-------------------|
-----9-------------------|-------------------------|
-------------------------|-------------------------|


  E  E  E  E   E.  E.  E     E  E  E  E  E.  E.  E
--------------------------|-------------------------|
--------------------------|-------------------------|
--7-----7--9--11---9---7--|--6-----6--7--9---7---6--|
-----7--------------------|-----7-------------------|
--------------------------|-------------------------|
--------------------------|-------------------------|


  E  E  E  E  E.  E.  E     E  E  E  E  E.  E.  E
-------------------------|-------------------------|
-------------------------|-------------------------|
--4-----4--6--7---6---4--|--4-----4--6--7---6---4--|
-----4-------------------|-----4-------------------|
-------------------------|-------------------------|
-------------------------|-------------------------|


  E  E  E  E  E.  E.  E     Q    Q    H
-------------------------|---------------------|
-------------------------|---------------------|
--4-----4--6--7---6---4--|--4----6----3--------|
-----4-------------------|---------------------|
-------------------------|---------------------|
-------------------------|---------------------|


  E  S S S S S S E  S S S S S S    E  S S S S S S Q    Q
--------------------------------|---------------------------|
--------------------------------|---------------------------|
--------------------------------|---------------------------|
--4--------------4--------------|--4--------------4----2----|
--2--2-2-2-2-2-2-2--2-2-2-2-2-2-|--2--2-2-2-2-2-2-2----0----|
--------------------------------|---------------------------|


  E  S S S S S S E  S S S S S S    E  S S S S S S Q    Q
--------------------------------|---------------------------|
--------------------------------|---------------------------|
--------------------------------|---------------------------|
--4--------------4--------------|--4--------------4----2----|
--2--2-2-2-2-2-2-2--2-2-2-2-2-2-|--2--2-2-2-2-2-2-2----0----|
--------------------------------|---------------------------|


  W                   W
-------------------|-------------------|
-------------------|-------------------|
-------------------|-------------------|
--5----------------|--4----------------|
--5----------------|--2----------------|
--3----------------|--2----------------|


  E  S S S S S S E  S S S S S S    E.  E.  Q    E  E  E
--------------------------------|------------------------|
--------------------------------|------------------------|
--------------------------------|------------------------|
--4--------------4--------------|------------------------|
--2--2-2-2-2-2-2-2--2-2-2-2-2-2-|--5---7---5----4--2--0--|
--------------------------------|------------------------|


  E  S S S S S S E  S S S S S S    E  S S S S S S Q    Q
--------------------------------|---------------------------|
--------------------------------|---------------------------|
--------------------------------|---------------------------|
--4--------------4--------------|--4--------------4----2----|
--2--2-2-2-2-2-2-2--2-2-2-2-2-2-|--2--2-2-2-2-2-2-2----0----|
--------------------------------|---------------------------|


  E  S S S S S S E  S S S S S S    E  S S S S S S Q    Q
--------------------------------|---------------------------|
--------------------------------|---------------------------|
--------------------------------|---------------------------|
--4--------------4--------------|--4--------------4----2----|
--2--2-2-2-2-2-2-2--2-2-2-2-2-2-|--2--2-2-2-2-2-2-2----0----|
--------------------------------|---------------------------|


  W                   W
-------------------|-------------------|
-------------------|-------------------|
-------------------|-------------------|
--5----------------|--4----------------|
--5----------------|--4----------------|
--3----------------|--2----------------|


  E  S S S S S S E  S S S S S S    E.  E.  Q    E  E  E
--------------------------------|------------------------|
--------------------------------|------------------------|
--------------------------------|------------------------|
--4--------------4--------------|------------------------|
--2--2-2-2-2-2-2-2--2-2-2-2-2-2-|--5---7---5----4--2--0--|
--------------------------------|------------------------|


  W                   W                   Q    Q     E.   E.   E
-------------------|-------------------|------------17------------|
-------------------|-------------------|-----------------17---14--|
-------------------|-------------------|--------------------------|
--5----------------|--4----------------|--------------------------|
--5----------------|--4----------------|--------------------------|
--3----------------|--2----------------|--------------------------|


   E   H.           E     W                   W
-----------------------|-------------------|-------------------|
--15--17------------L--|-------------------|-------------------|
-----------------------|-------------------|-------------------|
-----------------------|--7----------------|--4----------------|
-----------------------|--7----------------|--4----------------|
-----------------------|--5----------------|--2----------------|


  H        E.  E.  E     S E.  E.  E.  Q.        W
---------------0---2--|--L-3---2---0----------|-------------------|
-----------3----------|----------------3------|-------------------|
----------------------|-----------------------|-------------------|
----------------------|-----------------------|--5----------------|
----------------------|-----------------------|--5----------------|
----------------------|-----------------------|--3----------------|


  E.  E.  E.  E.  E  E     W
------------------------|-------------------|
------------------------|-------------------|
------------------------|-------------------|
--4---4---4---4---4--4--|-------------------|
--4---4---4---4---4--4--|-------------------|
--2---2---2---2---2--2--|-------------------|


  E  S S S S S S E  S S S S S S    E  S S S S S S Q    Q
--------------------------------|---------------------------|
--------------------------------|---------------------------|
--------------------------------|---------------------------|
--4--------------4--------------|--4--------------4----2----|
--2--2-2-2-2-2-2-2--2-2-2-2-2-2-|--2--2-2-2-2-2-2-2----0----|
--------------------------------|---------------------------|


  E  S S S S S S E  S S S S S S    E  S S S S S S Q    Q
--------------------------------|---------------------------|
--------------------------------|---------------------------|
--------------------------------|---------------------------|
--4--------------4--------------|--4--------------4----2----|
--2--2-2-2-2-2-2-2--2-2-2-2-2-2-|--2--2-2-2-2-2-2-2----0----|
--------------------------------|---------------------------|


  W                   W
-------------------|-------------------|
-------------------|-------------------|
-------------------|-------------------|
--5----------------|--4----------------|
--5----------------|--4----------------|
--3----------------|--2----------------|


  E  S S S S S S E  S S S S S S    E.  E.  Q    E  E  E
--------------------------------|------------------------|
--------------------------------|------------------------|
--------------------------------|------------------------|
--4--------------4--------------|------------------------|
--2--2-2-2-2-2-2-2--2-2-2-2-2-2-|--5---7---5----4--2--0--|
--------------------------------|------------------------|


  E  S S S S S S E  S S S S S S    E  S S S S S S Q    Q
--------------------------------|---------------------------|
--------------------------------|---------------------------|
--------------------------------|---------------------------|
--4--------------4--------------|--4--------------4----2----|
--2--2-2-2-2-2-2-2--2-2-2-2-2-2-|--2--2-2-2-2-2-2-2----0----|
--------------------------------|---------------------------|


  E  S S S S S S E  S S S S S S    E  S S S S S S Q    Q
--------------------------------|---------------------------|
--------------------------------|---------------------------|
--------------------------------|---------------------------|
--4--------------4--------------|--4--------------4----2----|
--2--2-2-2-2-2-2-2--2-2-2-2-2-2-|--2--2-2-2-2-2-2-2----0----|
--------------------------------|---------------------------|


  W                   W
-------------------|-------------------|
-------------------|-------------------|
-------------------|-------------------|
--5----------------|--4----------------|
--5----------------|--4----------------|
--3----------------|--2----------------|


  E  S S S S S S E  S S S S S S    E.  E.  Q    E  E  E
--------------------------------|------------------------|
--------------------------------|------------------------|
--------------------------------|------------------------|
--4--------------4--------------|------------------------|
--2--2-2-2-2-2-2-2--2-2-2-2-2-2-|--5---7---5----4--2--0--|
--------------------------------|------------------------|


  W                   W                   Q    Q     E.   E.   E
-------------------|-------------------|------------17------------|
-------------------|-------------------|-----------------17---14--|
-------------------|-------------------|--------------------------|
--5----------------|--4----------------|--------------------------|
--5----------------|--4----------------|--------------------------|
--3----------------|--2----------------|--------------------------|


   E   H.           E     W                   W
-----------------------|-------------------|-------------------|
--15--17------------L--|-------------------|-------------------|
-----------------------|-------------------|-------------------|
-----------------------|--7----------------|--4----------------|
-----------------------|--7----------------|--4----------------|
-----------------------|--5----------------|--2----------------|


  H        E.  E.  E     S E.  E.  E.  Q.        W
---------------0---2--|--L-3---2---0----------|-------------------|
-----------3----------|----------------3------|-------------------|
----------------------|-----------------------|-------------------|
----------------------|-----------------------|--5----------------|
----------------------|-----------------------|--5----------------|
----------------------|-----------------------|--3----------------|


  E.  E.  E.  E.  E  E     W
------------------------|-------------------|
------------------------|-------------------|
------------------------|-------------------|
--4---4---4---4---4--4--|-------------------|
--4---4---4---4---4--4--|-------------------|
--2---2---2---2---2--2--|-------------------|


  E  S S S S S S E  S S S S S S    E  S S S S S S E  S S S S S S
--------------------------------|--------------------------------|
--------------------------------|--------------------------------|
--4--------------4--------------|--------------------------------|
--4--------------4--------------|--5--------------5--------------|
--2--2-2-2-2-2-2-2--2-2-2-2-2-2-|--5--------------5--------------|
--------------------------------|--3--3-3-3-3-3-3-3--3-3-3-3-3-3-|


  E  S S S S S S  E.   E.   E     E  S S S S S S E  S S S S S S
-----------------14---12-------|--------------------------------|
---------------------------15--|--------------------------------|
--2----------------------------|--------------------------------|
--2----------------------------|--4--------------4--------------|
--0--0-0-0-0-0-0---------------|--4--------------4--------------|
-------------------------------|--2--2-2-2-2-2-2-2--2-2-2-2-2-2-|


  E  S S S S S S E  S S S S S S    E  S S S S S S E  S S S S S S
--------------------------------|--------------------------------|
--------------------------------|--------------------------------|
--4--------------4--------------|--------------------------------|
--4--------------4--------------|--5--------------5--------------|
--2--2-2-2-2-2-2-2--2-2-2-2-2-2-|--5--------------5--------------|
--------------------------------|--3--3-3-3-3-3-3-3--3-3-3-3-3-3-|


  E  S S S S S S E  S S S S S S    E  S S S S S S E  S S S S S S
--------------------------------|--------------------------------|
--------------------------------|--------------------------------|
--------------------------------|--------------------------------|
--4--------------4--------------|--4--------------4--------------|
--4--------------4--------------|--4--------------4--------------|
--2--2-2-2-2-2-2-2--2-2-2-2-2-2-|--2--2-2-2-2-2-2-2--2-2-2-2-2-2-|


  E  S S S S S S E  S S S S S S    E  S S S S S S E  S S S S S S
--------------------------------|--------------------------------|
--------------------------------|--------------------------------|
--4--------------4--------------|--------------------------------|
--4--------------4--------------|--5--------------5--------------|
--2--2-2-2-2-2-2-2--2-2-2-2-2-2-|--5--------------5--------------|
--------------------------------|--3--3-3-3-3-3-3-3--3-3-3-3-3-3-|


  E  S S S S S S  E.   E.   E     E  S S S S S S E  S S S S S S
-----------------14---12-------|--------------------------------|
---------------------------15--|--------------------------------|
--2----------------------------|--------------------------------|
--2----------------------------|--4--------------4--------------|
--0--0-0-0-0-0-0---------------|--4--------------4--------------|
-------------------------------|--2--2-2-2-2-2-2-2--2-2-2-2-2-2-|


  E  S S S S S S E  S S S S S S    E  S S S S S S E  S S S S S S
--------------------------------|--------------------------------|
--------------------------------|--------------------------------|
--4--------------4--------------|--------------------------------|
--4--------------4--------------|--5--------------5--------------|
--2--2-2-2-2-2-2-2--2-2-2-2-2-2-|--5--------------5--------------|
--------------------------------|--3--3-3-3-3-3-3-3--3-3-3-3-3-3-|


  E  S S S S S S E  S S S S S S    E  S S S S S S E  S S S S S S
--------------------------------|--------------------------------|
--------------------------------|--------------------------------|
--------------------------------|--------------------------------|
--4--------------4--------------|--4--------------4--------------|
--4--------------4--------------|--4--------------4--------------|
--2--2-2-2-2-2-2-2--2-2-2-2-2-2-|--2--2-2-2-2-2-2-2--2-2-2-2-2-2-|


  E  E  E  E  E.  E.  E     E  E  E  E  E.  E.  E
-------------------------|-------------------------|
--0-----0--2--3---2---0--|-------------------------|
-------------------------|--6-----6--7--9---7---6--|
-------------------------|-----7-------------------|
-----9-------------------|-------------------------|
-------------------------|-------------------------|


  E  E  E  E   E.  E.  E     E  E  E  E  E.  E.  E
--------------------------|-------------------------|
--------------------------|-------------------------|
--7-----7--9--11---9---7--|--6-----6--7--9---7---6--|
-----7--------------------|-----7-------------------|
--------------------------|-------------------------|
--------------------------|-------------------------|


  E  E  E  E  E.  E.  E     E  E  E  E  E.  E.  E
-------------------------|-------------------------|
--0-----0--2--3---2---0--|-------------------------|
-------------------------|--6-----6--7--9---7---6--|
-------------------------|-----7-------------------|
-----9-------------------|-------------------------|
-------------------------|-------------------------|


  E  E  E  E   E.  E.  E     E  E  E  E  E.  E.  E
--------------------------|-------------------------|
--------------------------|-------------------------|
--7-----7--9--11---9---7--|--6-----6--7--9---7---6--|
-----7--------------------|-----7-------------------|
--------------------------|-------------------------|
--------------------------|-------------------------|


  E  E  E  E  E.  E.  E     E  E  E  E  E.  E.  E
-------------------------|-------------------------|
-------------------------|-------------------------|
--4-----4--6--7---6---4--|--4-----4--6--7---6---4--|
-----4-------------------|-----4-------------------|
-------------------------|-------------------------|
-------------------------|-------------------------|


  E  E  E  E  E.  E.  E     Q    Q    H           W
-------------------------|---------------------|-------------------|
-------------------------|---------------------|-------------------|
--4-----4--6--7---6---4--|--4----6----3--------|-------------------|
-----4-------------------|---------------------|-------------------|
-------------------------|---------------------|-------------------|
-------------------------|---------------------|-------------------|


  W                   W                   W
-------------------|-------------------|-------------------|
-------------------|-------------------|-------------------|
-------------------|-------------------|-------------------|
-------------------|-------------------|-------------------|
-------------------|-------------------|-------------------|
-------------------|-------------------|-------------------|


  W                   W                   Q.     E  E.  E.  E
-------------------|-------------------|-----------------------|
-------------------|-------------------|--5------3--3---2---3--|
-------------------|-------------------|-----------------------|
-------------------|-------------------|-----------------------|
-------------------|-------------------|-----------------------|
-------------------|-------------------|-----------------------|


  H.            T. T. T. T. T  T
---------------------------------|
--3------------------------------|
---------------------------11-12-|
------------------11-12-14-------|
---------------14----------------|
---------------------------------|


   X  T. T. T. T. T. T. T. T. T. T. T. T. T. T. T. T. T. T. E   X
------------------------------------------------------------------|
------------------------------------------------------------------|
---L-14-12-11----------------------11-12-14-12-11-----------------|
--------------14-12-11----11-12-14----------------14-12-11-14---L-|
-----------------------14-----------------------------------------|
------------------------------------------------------------------|


   S. E.   E.   H         T     Q.      E   E.   E.   E
----------------------------|----------------------------|
----------------------------|----------------------------|
----------------------------|--14------12--12---11---12--|
---L-12---11---12---------L-|----------------------------|
----------------------------|----------------------------|
----------------------------|----------------------------|


   Q.      Q     E.   E.      W
--------------------------|--------------------|
--------------------------|--------------------|
--11------11----12---11---|--------------------|
--------------------------|--14----------------|
--------------------------|--------------------|
--------------------------|--------------------|


   Q     E   Q     E   E   E
------------------------------|
------------------------------|
--11----14--11----------------|
------------------14--12--11--|
------------------------------|
------------------------------|


   S  S  S  S  S  S  S  S  S  S  S  S  S  S  S  S
--------------------------------------------------|
--------------------------12----------------------|
--14-12-11----14-12-11-------14-12-11-14-12-11----|
-----------14----------14----------------------14-|
--------------------------------------------------|
--------------------------------------------------|


   E.   E.   E   E.   E   E.      E.   E.   E   E.   E.   E
------------------------------|------------------------------|
--15---14---12----------------|--12--------------------------|
----------------14---12--11---|-------14---14--14---12---11--|
------------------------------|------------------------------|
------------------------------|------------------------------|
------------------------------|------------------------------|


   E.   H.            S
------------------------|
------------------------|
--12---11-------------L-|
------------------------|
------------------------|
------------------------|


   S  S  S  S  S  S  S  S  S  S  S  S  S  S  S  S
--------------------------------------------------|
--15-14-12----14-12-------12----------------------|
-----------14-------14-12----14-12-11-14-12-11----|
-----------------------------------------------14-|
--------------------------------------------------|
--------------------------------------------------|


   S  S  S  S  S  S  S  S  S  S  S  S  Q
--------------------------------------------|
--------------------------------------------|
--12-11-------11----------------------------|
--------14-12----14-12-11-14-12-11----------|
-----------------------------------14-12----|
--------------------------------------------|


   S  S  S  S  S  S  S  S  S  S  S  S  S  S  S  S
--------------------------------------------------|
--------------------------------------------------|
-----------------------------------11----11-12-11-|
--------11----11-12-11-12-14-12-14----14----------|
--12-14----14-------------------------------------|
--------------------------------------------------|


   S  S  S  S  S  S  S  S  S  S  S  S  Q
--------------------------------------------|
--------------12----12-14-12-14-15-14-12----|
--12-14-12-14----14-------------------------|
--------------------------------------------|
--------------------------------------------|
--------------------------------------------|


   T. T. T. T. T. T. T. T. T. T. T. T. T. T. T. T. T. T. T. T. T  T
--------------------------------------------------------------------|
--------------------------------------------------------------------|
--------------11-12-14-12-11----------------------11-12-14-12-11----|
-----11-12-14----------------14-12-11----11-12-14----------------14-|
--14----------------------------------14----------------------------|
--------------------------------------------------------------------|


   X  T. T. T. T. T. T. T. T. T. T. T. T. T. T. T. T. T. T. T. T. T.
--------------------------------------------------------------------|
--------------------------------12-14-15-14-12----------------------|
-----------------------11-12-14----------------14-12-11-------------|
---L-12-11----11-12-14----------------------------------14-12-11----|
-----------14----------------------------------------------------14-|
--------------------------------------------------------------------|


   E.   E.   E.   E.   E.   S
------------------------------|
-----------------12---14----L-|
--11---12---14----------------|
------------------------------|
------------------------------|
------------------------------|


   T. T. T. T. T. T. T. T. T. T. T. T. T. T. T. T. T. T. T. T. T. X
--22-21-19-22-21-19-22-21-19-22-21-19-22-21-19-22-21-19-22-21-19--L-|
--------------------------------------------------------------------|
--------------------------------------------------------------------|
--------------------------------------------------------------------|
--------------------------------------------------------------------|
--------------------------------------------------------------------|


   S  S  S  S  S  S  S  S  S  S  S  S  S  S  S  S
--15-14-12----------------12-14-15-14-12----------|
-----------15-14-12-14-15----------------15-14-12-|
--------------------------------------------------|
--------------------------------------------------|
--------------------------------------------------|
--------------------------------------------------|


   E   H.            E      E   Q.       Q.       S  S
------------------------|------------------------------|
--15--15-------------L--|--15--17b------17b------17-15-|
------------------------|------------------------------|
------------------------|------------------------------|
------------------------|------------------------------|
------------------------|------------------------------|


   H         E   E   E   E      E   E   E   Q     Q.
----------------------------|----------------------------|
--17--------15--15--14--14--|--12--12------------12------|
----------------------------|----------14--14------------|
----------------------------|----------------------------|
----------------------------|----------------------------|
----------------------------|----------------------------|


   Q     E.   E   E.   Q        E.   E.   H            E
----------------------------|------------------------------|
----------------------------|-----------------------<>12b--|
--14----12---11--12---11----|------------------------------|
----------------------------|--14---12---14b---------------|
----------------------------|------------------------------|
----------------------------|------------------------------|


   Q    H.              E  S S S S S S E  S S S S S S
---------------------|--------------------------------|
---L----0------------|--------------------------------|
---------------------|--------------------------------|
---------------------|--5--------------5--------------|
---------------------|--5--------------5--------------|
---------------------|--3--3-3-3-3-3-3-3--3-3-3-3-3-3-|


  E  S S S S S S  E.   E.   E     E  S S S S S S E  S S S S S S
-----------------14---12-------|--------------------------------|
---------------------------15--|--------------------------------|
--2----------------------------|--------------------------------|
--2----------------------------|--4--------------4--------------|
--0--0-0-0-0-0-0---------------|--4--------------4--------------|
-------------------------------|--2--2-2-2-2-2-2-2--2-2-2-2-2-2-|


  E  S S S S S S E  S S S S S S    E  S S S S S S E  S S S S S S
--------------------------------|--------------------------------|
--------------------------------|--------------------------------|
--4--------------4--------------|--------------------------------|
--4--------------4--------------|--5--------------5--------------|
--2--2-2-2-2-2-2-2--2-2-2-2-2-2-|--5--------------5--------------|
--------------------------------|--3--3-3-3-3-3-3-3--3-3-3-3-3-3-|


  E  S S S S S S E  S S S S S S    E  S S S S S S E  S S S S S S
--------------------------------|--------------------------------|
--------------------------------|--------------------------------|
--------------------------------|--------------------------------|
--4--------------4--------------|--4--------------4--------------|
--4--------------4--------------|--4--------------4--------------|
--2--2-2-2-2-2-2-2--2-2-2-2-2-2-|--2--2-2-2-2-2-2-2--2-2-2-2-2-2-|


  E  S S S S S S E  S S S S S S    E  S S S S S S E  S S S S S S
--------------------------------|--------------------------------|
--------------------------------|--------------------------------|
--4--------------4--------------|--------------------------------|
--4--------------4--------------|--5--------------5--------------|
--2--2-2-2-2-2-2-2--2-2-2-2-2-2-|--5--------------5--------------|
--------------------------------|--3--3-3-3-3-3-3-3--3-3-3-3-3-3-|


  E  S S S S S S  E.   E.   E     E  S S S S S S E  S S S S S S
-----------------14---12-------|--------------------------------|
---------------------------15--|--------------------------------|
--2----------------------------|--------------------------------|
--2----------------------------|--4--------------4--------------|
--0--0-0-0-0-0-0---------------|--4--------------4--------------|
-------------------------------|--2--2-2-2-2-2-2-2--2-2-2-2-2-2-|


  E  S S S S S S E  S S S S S S    E  S S S S S S E  S S S S S S
--------------------------------|--------------------------------|
--------------------------------|--------------------------------|
--4--------------4--------------|--------------------------------|
--4--------------4--------------|--5--------------5--------------|
--2--2-2-2-2-2-2-2--2-2-2-2-2-2-|--5--------------5--------------|
--------------------------------|--3--3-3-3-3-3-3-3--3-3-3-3-3-3-|


  E  S S S S S S E  S S S S S S    E  S S S S S S E  S S S S S S
--------------------------------|--------------------------------|
--------------------------------|--------------------------------|
--------------------------------|--------------------------------|
--4--------------4--------------|--4--------------4--------------|
--4--------------4--------------|--4--------------4--------------|
--2--2-2-2-2-2-2-2--2-2-2-2-2-2-|--2--2-2-2-2-2-2-2--2-2-2-2-2-2-|


  E  E  E  E  E.  E.  E     E  E  E  E  E.  E.  E
-------------------------|-------------------------|
--0-----0--2--3---2---0--|-------------------------|
-------------------------|--6-----6--7--9---7---6--|
-------------------------|-----7-------------------|
-----9-------------------|-------------------------|
-------------------------|-------------------------|


  E  E  E  E   E.  E.  E     E  E  E  E  E.  E.  E
--------------------------|-------------------------|
--------------------------|-------------------------|
--7-----7--9--11---9---7--|--6-----6--7--9---7---6--|
-----7--------------------|-----7-------------------|
--------------------------|-------------------------|
--------------------------|-------------------------|


  E  E  E  E  E.  E.  E     E  E  E  E  E.  E.  E
-------------------------|-------------------------|
--0-----0--2--3---2---0--|-------------------------|
-------------------------|--6-----6--7--9---7---6--|
-------------------------|-----7-------------------|
-----9-------------------|-------------------------|
-------------------------|-------------------------|


  E  E  E  E   E.  E.  E     E  E  E  E  E.  E.  E
--------------------------|-------------------------|
--------------------------|-------------------------|
--7-----7--9--11---9---7--|--6-----6--7--9---7---6--|
-----7--------------------|-----7-------------------|
--------------------------|-------------------------|
--------------------------|-------------------------|


  E  E  E  E  E.  E.  E     E  E  E  E  E.  E.  E
-------------------------|-------------------------|
-------------------------|-------------------------|
--4-----4--6--7---6---4--|--4-----4--6--7---6---4--|
-----4-------------------|-----4-------------------|
-------------------------|-------------------------|
-------------------------|-------------------------|


  E  E  E  E  E.  E.  E     Q    Q    H           W
-------------------------|---------------------|-------------------|
-------------------------|---------------------|-------------------|
--4-----4--6--7---6---4--|--4----6----3--------|--L----------------|
-----4-------------------|---------------------|-------------------|
-------------------------|---------------------|-------------------|
-------------------------|---------------------|-------------------|


              W                   W
-----------|-------------------|-------------------|
-----------|-------------------|-------------------|
-----------|--4----------------|--L----------------|
-----------|--4----------------|--L----------------|
-----------|--2----------------|--L----------------|
-----------|-------------------|-------------------|


  W                   W
-------------------|-------------------|
-------------------|-------------------|
--L----------------|--4----------------|
--L----------------|--4----------------|
--L----------------|--2----------------|
-------------------|-------------------|


  W
-------------------||
-------------------||
--4----------------||
--4----------------||
--2----------------||
-------------------||


Duration Legend
---------------
W - whole
H - half
Q - quarter
E - 8th
S - 16th
T - 32nd
X - 64th
. - note dotted
|-n-|  - n-tuplets


Tablature Legend
----------------
L - tied note
x - dead note
g - grace note
(n) - ghost note
> - accentuded note
NH - natural harmonic
AH - artificial harmonic
TH - tapped harmonic
SH - semi harmonic
PH - pitch harmonic
h - hammer on
p - pull off
b - bend
br - bendRelease
pb - preBend
pbr - preBendRelease
brb - bendReleaseBend
n/ - tremolo bar dip
n - tremolo bar dive
-/n - tremolo bar Release up
/n - tremolo bar inverted dip
/n - tremolo bar return
-n - tremolo bar Release down
S - shift slide
s - legato slide
/ -  slide into from below or out of upwards
 -  slide into from above or out of downwards
~ - vibrato
W - wide vibrato
tr - trill
TP - tremolo picking
T - tapping
S - slap
P - pop
< - fade in
^ - brush up
v - brush down


--------------------GUITARRA 2-------------------------


     W                   W                   W
E||-------------------|-------------------|-------------------|
B||-------------------|-------------------|-------------------|
G||-------------------|-------------------|-------------------|
D||-------------------|-------------------|-------------------|
A||-------------------|-------------------|-------------------|
E||-------------------|-------------------|-------------------|


  W                   W                   E  E  E  E   E.  E.  E
-------------------|-------------------|--------------------------|
-------------------|-------------------|--------------------------|
-------------------|-------------------|--7-----7--9--11---9---7--|
-------------------|-------------------|-----9--------------------|
-------------------|-------------------|--------------------------|
-------------------|-------------------|--------------------------|


  E   E  E   E   E.   E.  E      E   E   E   E   E.   E.   E
-----------------------------|--------------------------------|
-----------------------------|--------------------------------|
--9------9--11--12---11---9--|--11------11--12--14---12---11--|
-----11----------------------|------12------------------------|
-----------------------------|--------------------------------|
-----------------------------|--------------------------------|


  E  E  E  E  E.  E.  E     E  E  E  E  E.  E.  E
-------------------------|-------------------------|
--5-----5--7--8---7---5--|--3-----3--5--7---5---3--|
-----6-------------------|-----4-------------------|
-------------------------|-------------------------|
-------------------------|-------------------------|
-------------------------|-------------------------|


  E  E  E  E  E.  E.  E     E  E  E  E   E.  E.  E
-------------------------|--------------------------|
--5-----5--7--8---7---5--|--7-----7--8--10---8---7--|
-----6-------------------|-----7--------------------|
-------------------------|--------------------------|
-------------------------|--------------------------|
-------------------------|--------------------------|


  E  E  E  E  E.  E.  E     E  E  E  E  E.  E.  E
-------------------------|-------------------------|
--5-----5--7--8---7---5--|--3-----3--5--7---5---3--|
-----6-------------------|-----4-------------------|
-------------------------|-------------------------|
-------------------------|-------------------------|
-------------------------|-------------------------|


  E  E  E  E  E.  E.  E     E  E  E  E   E.  E.  E
-------------------------|--------------------------|
--5-----5--7--8---7---5--|--7-----7--8--10---8---7--|
-----6-------------------|-----7--------------------|
-------------------------|--------------------------|
-------------------------|--------------------------|
-------------------------|--------------------------|


  E  E  E  E  E.  E.  E     Q    E  E  E.  E.  E
-------------------------|------------------------|
--5-----5--7--8---7---5--|--3----3--5--7---5---3--|
-----6-------------------|------------------------|
-------------------------|------------------------|
-------------------------|------------------------|
-------------------------|------------------------|


  Q    E  E  E.  E.  E     Q    E  E  E.  E.  E
------------------------|------------------------|
--3----3--5--7---5---3--|--3----3--5--7---5---3--|
------------------------|------------------------|
------------------------|------------------------|
------------------------|------------------------|
------------------------|------------------------|


  Q    Q    H           E  S S S S S S E  S S S S S S
---------------------|--------------------------------|
--3----5----2--------|--------------------------------|
---------------------|--------------------------------|
---------------------|--4--------------4--------------|
---------------------|--2--2-2-2-2-2-2-2--2-2-2-2-2-2-|
---------------------|--------------------------------|


  E  S S S S S S Q    Q       E  S S S S S S E  S S S S S S
---------------------------|--------------------------------|
---------------------------|--------------------------------|
---------------------------|--------------------------------|
--4--------------4----2----|--4--------------4--------------|
--2--2-2-2-2-2-2-2----0----|--2--2-2-2-2-2-2-2--2-2-2-2-2-2-|
---------------------------|--------------------------------|


  E  S S S S S S Q    Q       W                   W
---------------------------|-------------------|-------------------|
---------------------------|-------------------|-------------------|
---------------------------|-------------------|-------------------|
--4--------------4----2----|--5----------------|--4----------------|
--2--2-2-2-2-2-2-2----0----|--5----------------|--4----------------|
---------------------------|--3----------------|--2----------------|


  E  S S S S S S E  S S S S S S    E.  E.  Q    E  E  E
--------------------------------|------------------------|
--------------------------------|------------------------|
--------------------------------|------------------------|
--4--------------4--------------|------------------------|
--2--2-2-2-2-2-2-2--2-2-2-2-2-2-|--5---7---5----4--2--0--|
--------------------------------|------------------------|


  E  S S S S S S E  S S S S S S    E  S S S S S S Q    Q
--------------------------------|---------------------------|
--------------------------------|---------------------------|
--------------------------------|---------------------------|
--4--------------4--------------|--4--------------4----2----|
--2--2-2-2-2-2-2-2--2-2-2-2-2-2-|--2--2-2-2-2-2-2-2----0----|
--------------------------------|---------------------------|


  E  S S S S S S E  S S S S S S    E  S S S S S S Q    Q
--------------------------------|---------------------------|
--------------------------------|---------------------------|
--------------------------------|---------------------------|
--4--------------4--------------|--4--------------4----2----|
--2--2-2-2-2-2-2-2--2-2-2-2-2-2-|--2--2-2-2-2-2-2-2----0----|
--------------------------------|---------------------------|


  W                   W
-------------------|-------------------|
-------------------|-------------------|
-------------------|-------------------|
--5----------------|--4----------------|
--5----------------|--4----------------|
--3----------------|--2----------------|


  E  S S S S S S E  S S S S S S    E.  E.  Q    E  E  E
--------------------------------|------------------------|
--------------------------------|------------------------|
--------------------------------|------------------------|
--4--------------4--------------|------------------------|
--2--2-2-2-2-2-2-2--2-2-2-2-2-2-|--5---7---5----4--2--0--|
--------------------------------|------------------------|


  W                   W                   W
-------------------|-------------------|-------------------|
-------------------|-------------------|-------------------|
-------------------|-------------------|-------------------|
--5----------------|--4----------------|--2----------------|
--5----------------|--4----------------|--2----------------|
--3----------------|--2----------------|--0----------------|


  W                   W                   W
-------------------|-------------------|-------------------|
-------------------|-------------------|-------------------|
-------------------|-------------------|-------------------|
--L----------------|--7----------------|--4----------------|
--L----------------|--7----------------|--4----------------|
--L----------------|--5----------------|--2----------------|


  W                   W                   W
-------------------|-------------------|-------------------|
-------------------|-------------------|-------------------|
-------------------|-------------------|-------------------|
--2----------------|--L----------------|--5----------------|
--2----------------|--L----------------|--5----------------|
--0----------------|--L----------------|--3----------------|


  E.  E.  E.  E.  E  E     W
------------------------|-------------------|
------------------------|-------------------|
------------------------|-------------------|
--4---4---4---4---4--4--|-------------------|
--4---4---4---4---4--4--|-------------------|
--2---2---2---2---2--2--|-------------------|


  E  S S S S S S E  S S S S S S    E  S S S S S S Q    Q
--------------------------------|---------------------------|
--------------------------------|---------------------------|
--------------------------------|---------------------------|
--4--------------4--------------|--4--------------4----2----|
--2--2-2-2-2-2-2-2--2-2-2-2-2-2-|--2--2-2-2-2-2-2-2----0----|
--------------------------------|---------------------------|


  E  S S S S S S E  S S S S S S    E  S S S S S S Q    Q
--------------------------------|---------------------------|
--------------------------------|---------------------------|
--------------------------------|---------------------------|
--4--------------4--------------|--4--------------4----2----|
--2--2-2-2-2-2-2-2--2-2-2-2-2-2-|--2--2-2-2-2-2-2-2----0----|
--------------------------------|---------------------------|


  W                   W
-------------------|-------------------|
-------------------|-------------------|
-------------------|-------------------|
--5----------------|--4----------------|
--5----------------|--4----------------|
--3----------------|--2----------------|


  E  S S S S S S E  S S S S S S    E.  E.  Q    E  E  E
--------------------------------|------------------------|
--------------------------------|------------------------|
--------------------------------|------------------------|
--4--------------4--------------|------------------------|
--2--2-2-2-2-2-2-2--2-2-2-2-2-2-|--5---7---5----4--2--0--|
--------------------------------|------------------------|


  E  S S S S S S E  S S S S S S    E  S S S S S S Q    Q
--------------------------------|---------------------------|
--------------------------------|---------------------------|
--------------------------------|---------------------------|
--4--------------4--------------|--4--------------4----2----|
--2--2-2-2-2-2-2-2--2-2-2-2-2-2-|--2--2-2-2-2-2-2-2----0----|
--------------------------------|---------------------------|


  E  S S S S S S E  S S S S S S    E  S S S S S S Q    Q
--------------------------------|---------------------------|
--------------------------------|---------------------------|
--------------------------------|---------------------------|
--4--------------4--------------|--4--------------4----2----|
--2--2-2-2-2-2-2-2--2-2-2-2-2-2-|--2--2-2-2-2-2-2-2----0----|
--------------------------------|---------------------------|


  W                   W
-------------------|-------------------|
-------------------|-------------------|
-------------------|-------------------|
--5----------------|--4----------------|
--5----------------|--4----------------|
--3----------------|--2----------------|


  E  S S S S S S E  S S S S S S    E.  E.  Q    E  E  E
--------------------------------|------------------------|
--------------------------------|------------------------|
--------------------------------|------------------------|
--4--------------4--------------|------------------------|
--2--2-2-2-2-2-2-2--2-2-2-2-2-2-|--5---7---5----4--2--0--|
--------------------------------|------------------------|


  W                   W                   W
-------------------|-------------------|-------------------|
-------------------|-------------------|-------------------|
-------------------|-------------------|-------------------|
--5----------------|--4----------------|--2----------------|
--5----------------|--4----------------|--2----------------|
--3----------------|--2----------------|--0----------------|


  W                   W                   W
-------------------|-------------------|-------------------|
-------------------|-------------------|-------------------|
-------------------|-------------------|-------------------|
--L----------------|--7----------------|--4----------------|
--L----------------|--7----------------|--4----------------|
--L----------------|--5----------------|--2----------------|


  W                   W                   W
-------------------|-------------------|-------------------|
-------------------|-------------------|-------------------|
-------------------|-------------------|-------------------|
--2----------------|--L----------------|--5----------------|
--2----------------|--L----------------|--5----------------|
--0----------------|--L----------------|--3----------------|


  E.  E.  E.  E.  E  E     W
------------------------|-------------------|
------------------------|-------------------|
------------------------|-------------------|
--4---4---4---4---4--4--|-------------------|
--4---4---4---4---4--4--|-------------------|
--2---2---2---2---2--2--|-------------------|


  E  S S S S S S E  S S S S S S    E  S S S S S S E  S S S S S S
--------------------------------|--------------------------------|
--------------------------------|--------------------------------|
--4--------------4--------------|--------------------------------|
--4--------------4--------------|--5--------------5--------------|
--2--2-2-2-2-2-2-2--2-2-2-2-2-2-|--5--------------5--------------|
--------------------------------|--3--3-3-3-3-3-3-3--3-3-3-3-3-3-|


  E  S S S S S S E  S S S S S S    E  S S S S S S E  S S S S S S
--------------------------------|--------------------------------|
--------------------------------|--------------------------------|
--2--------------2--------------|--------------------------------|
--2--------------2--------------|--4--------------4--------------|
--0--0-0-0-0-0-0-0--0-0-0-0-0-0-|--4--------------4--------------|
--------------------------------|--2--2-2-2-2-2-2-2--2-2-2-2-2-2-|


  E  S S S S S S E  S S S S S S    E  S S S S S S E  S S S S S S
--------------------------------|--------------------------------|
--------------------------------|--------------------------------|
--4--------------4--------------|--------------------------------|
--4--------------4--------------|--5--------------5--------------|
--2--2-2-2-2-2-2-2--2-2-2-2-2-2-|--5--------------5--------------|
--------------------------------|--3--3-3-3-3-3-3-3--3-3-3-3-3-3-|


  E  S S S S S S E  S S S S S S    E  S S S S S S E  S S S S S S
--------------------------------|--------------------------------|
--------------------------------|--------------------------------|
--------------------------------|--------------------------------|
--4--------------4--------------|--4--------------4--------------|
--4--------------4--------------|--4--------------4--------------|
--2--2-2-2-2-2-2-2--2-2-2-2-2-2-|--2--2-2-2-2-2-2-2--2-2-2-2-2-2-|


  E  S S S S S S E  S S S S S S    E  S S S S S S E  S S S S S S
--------------------------------|--------------------------------|
--------------------------------|--------------------------------|
--4--------------4--------------|--------------------------------|
--4--------------4--------------|--5--------------5--------------|
--2--2-2-2-2-2-2-2--2-2-2-2-2-2-|--5--------------5--------------|
--------------------------------|--3--3-3-3-3-3-3-3--3-3-3-3-3-3-|


  E  S S S S S S E  S S S S S S    E  S S S S S S E  S S S S S S
--------------------------------|--------------------------------|
--------------------------------|--------------------------------|
--2--------------2--------------|--------------------------------|
--2--------------2--------------|--4--------------4--------------|
--0--0-0-0-0-0-0-0--0-0-0-0-0-0-|--4--------------4--------------|
--------------------------------|--2--2-2-2-2-2-2-2--2-2-2-2-2-2-|


  E  S S S S S S E  S S S S S S    E  S S S S S S E  S S S S S S
--------------------------------|--------------------------------|
--------------------------------|--------------------------------|
--4--------------4--------------|--------------------------------|
--4--------------4--------------|--5--------------5--------------|
--2--2-2-2-2-2-2-2--2-2-2-2-2-2-|--5--------------5--------------|
--------------------------------|--3--3-3-3-3-3-3-3--3-3-3-3-3-3-|


  E  S S S S S S E  S S S S S S    E  S S S S S S E  S S S S S S
--------------------------------|--------------------------------|
--------------------------------|--------------------------------|
--------------------------------|--------------------------------|
--4--------------4--------------|--4--------------4--------------|
--4--------------4--------------|--4--------------4--------------|
--2--2-2-2-2-2-2-2--2-2-2-2-2-2-|--2--2-2-2-2-2-2-2--2-2-2-2-2-2-|


  E  E  E  E  E.  E.  E     E  E  E  E  E.  E.  E
-------------------------|-------------------------|
--3-----3--5--7---5---3--|--5-----5--7--8---7---5--|
-----4-------------------|-----6-------------------|
-------------------------|-------------------------|
-------------------------|-------------------------|
-------------------------|-------------------------|


  E  E  E  E   E.  E.  E     E  E  E  E  E.  E.  E
--------------------------|-------------------------|
--7-----7--8--10---8---7--|--5-----5--7--8---7---5--|
-----7--------------------|-----6-------------------|
--------------------------|-------------------------|
--------------------------|-------------------------|
--------------------------|-------------------------|


  E  E  E  E  E.  E.  E     E  E  E  E  E.  E.  E
-------------------------|-------------------------|
--3-----3--5--7---5---3--|--5-----5--7--8---7---5--|
-----4-------------------|-----6-------------------|
-------------------------|-------------------------|
-------------------------|-------------------------|
-------------------------|-------------------------|


  E  E  E  E   E.  E.  E     E  E  E  E  E.  E.  E
--------------------------|-------------------------|
--7-----7--8--10---8---7--|--5-----5--7--8---7---5--|
-----7--------------------|-----6-------------------|
--------------------------|-------------------------|
--------------------------|-------------------------|
--------------------------|-------------------------|


  E  E  E  E  E.  E.  E     E  E  E  E  E.  E.  E
-------------------------|-------------------------|
--3-----3--5--7---5---3--|--3-----3--5--7---5---3--|
-----4-------------------|-----4-------------------|
-------------------------|-------------------------|
-------------------------|-------------------------|
-------------------------|-------------------------|


  E  E  E  E  E.  E.  E     Q    Q    H           W
-------------------------|---------------------|-------------------|
--3-----3--5--7---5---3--|--3----5----2--------|-------------------|
-----4-------------------|---------------------|-------------------|
-------------------------|---------------------|-------------------|
-------------------------|---------------------|-------------------|
-------------------------|---------------------|-------------------|


  W                   W                   W
-------------------|-------------------|-------------------|
-------------------|-------------------|-------------------|
-------------------|-------------------|-------------------|
-------------------|-------------------|-------------------|
-------------------|-------------------|-------------------|
-------------------|-------------------|-------------------|


  W                   W
-------------------|-------------------|
-------------------|-------------------|
-------------------|-------------------|
-------------------|-------------------|
-------------------|-------------------|
-------------------|-------------------|


  E  S S S S S S E  S S S S S S    E  S S S S S S Q    Q
--------------------------------|---------------------------|
--------------------------------|---------------------------|
--------------------------------|---------------------------|
--4--------------4--------------|--4--------------4----2----|
--2--2-2-2-2-2-2-2--2-2-2-2-2-2-|--2--2-2-2-2-2-2-2----0----|
--------------------------------|---------------------------|


  E  S S S S S S E  S S S S S S    E  S S S S S S Q    Q
--------------------------------|---------------------------|
--------------------------------|---------------------------|
--------------------------------|---------------------------|
--4--------------4--------------|--4--------------4----2----|
--2--2-2-2-2-2-2-2--2-2-2-2-2-2-|--2--2-2-2-2-2-2-2----0----|
--------------------------------|---------------------------|


  E  S S S S S S E  S S S S S S    E  S S S S S S Q    Q
--------------------------------|---------------------------|
--------------------------------|---------------------------|
--------------------------------|---------------------------|
--4--------------4--------------|--4--------------4----2----|
--2--2-2-2-2-2-2-2--2-2-2-2-2-2-|--2--2-2-2-2-2-2-2----0----|
--------------------------------|---------------------------|


  E  S S S S S S E  S S S S S S    E  S S S S S S Q    Q
--------------------------------|---------------------------|
--------------------------------|---------------------------|
--------------------------------|---------------------------|
--4--------------4--------------|--4--------------4----2----|
--2--2-2-2-2-2-2-2--2-2-2-2-2-2-|--2--2-2-2-2-2-2-2----0----|
--------------------------------|---------------------------|


  E  S S S S S S E  S S S S S S    E  S S S S S S Q    Q
--------------------------------|---------------------------|
--------------------------------|---------------------------|
--------------------------------|---------------------------|
--4--------------4--------------|--4--------------4----2----|
--2--2-2-2-2-2-2-2--2-2-2-2-2-2-|--2--2-2-2-2-2-2-2----0----|
--------------------------------|---------------------------|


  E  S S S S S S E  S S S S S S    E  S S S S S S Q    Q
--------------------------------|---------------------------|
--------------------------------|---------------------------|
--------------------------------|---------------------------|
--4--------------4--------------|--4--------------4----2----|
--2--2-2-2-2-2-2-2--2-2-2-2-2-2-|--2--2-2-2-2-2-2-2----0----|
--------------------------------|---------------------------|


  E  S S S S S S E  S S S S S S    E  S S S S S S Q    Q
--------------------------------|---------------------------|
--------------------------------|---------------------------|
--------------------------------|---------------------------|
--4--------------4--------------|--4--------------4----2----|
--2--2-2-2-2-2-2-2--2-2-2-2-2-2-|--2--2-2-2-2-2-2-2----0----|
--------------------------------|---------------------------|


  E  S S S S S S E  S S S S S S    E  S S S S S S Q    Q
--------------------------------|---------------------------|
--------------------------------|---------------------------|
--------------------------------|---------------------------|
--4--------------4--------------|--4--------------4----2----|
--2--2-2-2-2-2-2-2--2-2-2-2-2-2-|--2--2-2-2-2-2-2-2----0----|
--------------------------------|---------------------------|


  S S S S S S S S S S S S S S S S    S S S S S S S S S S S S S S S S
----------------------------------|----------------------------------|
----------------------------------|----------------------------------|
----------------------------------|----------------------------------|
----------------------------------|----------------------------------|
--2-2-2-2-2-2-2-2-2-2-2-2-2-2-2-2-|--2-2-2-2-2-2-2-2-2-2-2-2-2-2-2-2-|
----------------------------------|----------------------------------|


  S S S S S S S S S S S S S S S S    S S S S S S S S S S S S S S S S
----------------------------------|----------------------------------|
----------------------------------|----------------------------------|
----------------------------------|----------------------------------|
----------------------------------|----------------------------------|
--2-2-2-2-2-2-2-2-2-2-2-2-2-2-2-2-|--2-2-2-2-2-2-2-2-2-2-2-2-2-2-2-2-|
----------------------------------|----------------------------------|


  S S S S S S S S S S S S S S S S
----------------------------------|----|----|----|----|----|----|
----------------------------------|----|----|----|----|----|----|
----------------------------------|----|----|----|----|----|----|
----------------------------------|----|----|----|----|----|----|
--2-2-2-2-2-2-2-2-2-2-2-2-2-2-2-2-|----|----|----|----|----|----|
----------------------------------|----|----|----|----|----|----|


  E  S S S S S S E  S S S S S S    E  S S S S S S E  S S S S S S
--------------------------------|--------------------------------|
--------------------------------|--------------------------------|
--4--------------4--------------|--------------------------------|
--4--------------4--------------|--5--------------5--------------|
--2--2-2-2-2-2-2-2--2-2-2-2-2-2-|--5--------------5--------------|
--------------------------------|--3--3-3-3-3-3-3-3--3-3-3-3-3-3-|


  E  S S S S S S E  S S S S S S    E  S S S S S S E  S S S S S S
--------------------------------|--------------------------------|
--------------------------------|--------------------------------|
--2--------------2--------------|--------------------------------|
--2--------------2--------------|--4--------------4--------------|
--0--0-0-0-0-0-0-0--0-0-0-0-0-0-|--4--------------4--------------|
--------------------------------|--2--2-2-2-2-2-2-2--2-2-2-2-2-2-|


  E  S S S S S S E  S S S S S S    E  S S S S S S E  S S S S S S
--------------------------------|--------------------------------|
--------------------------------|--------------------------------|
--4--------------4--------------|--------------------------------|
--4--------------4--------------|--5--------------5--------------|
--2--2-2-2-2-2-2-2--2-2-2-2-2-2-|--5--------------5--------------|
--------------------------------|--3--3-3-3-3-3-3-3--3-3-3-3-3-3-|


  E  S S S S S S E  S S S S S S    E  S S S S S S E  S S S S S S
--------------------------------|--------------------------------|
--------------------------------|--------------------------------|
--------------------------------|--------------------------------|
--4--------------4--------------|--4--------------4--------------|
--4--------------4--------------|--4--------------4--------------|
--2--2-2-2-2-2-2-2--2-2-2-2-2-2-|--2--2-2-2-2-2-2-2--2-2-2-2-2-2-|


  E  S S S S S S E  S S S S S S    E  S S S S S S E  S S S S S S
--------------------------------|--------------------------------|
--------------------------------|--------------------------------|
--4--------------4--------------|--------------------------------|
--4--------------4--------------|--5--------------5--------------|
--2--2-2-2-2-2-2-2--2-2-2-2-2-2-|--5--------------5--------------|
--------------------------------|--3--3-3-3-3-3-3-3--3-3-3-3-3-3-|


  E  S S S S S S E  S S S S S S    E  S S S S S S E  S S S S S S
--------------------------------|--------------------------------|
--------------------------------|--------------------------------|
--2--------------2--------------|--------------------------------|
--2--------------2--------------|--4--------------4--------------|
--0--0-0-0-0-0-0-0--0-0-0-0-0-0-|--4--------------4--------------|
--------------------------------|--2--2-2-2-2-2-2-2--2-2-2-2-2-2-|


  E  S S S S S S E  S S S S S S    E  S S S S S S E  S S S S S S
--------------------------------|--------------------------------|
--------------------------------|--------------------------------|
--4--------------4--------------|--------------------------------|
--4--------------4--------------|--5--------------5--------------|
--2--2-2-2-2-2-2-2--2-2-2-2-2-2-|--5--------------5--------------|
--------------------------------|--3--3-3-3-3-3-3-3--3-3-3-3-3-3-|


  E  S S S S S S E  S S S S S S    E  S S S S S S E  S S S S S S
--------------------------------|--------------------------------|
--------------------------------|--------------------------------|
--------------------------------|--------------------------------|
--4--------------4--------------|--4--------------4--------------|
--4--------------4--------------|--4--------------4--------------|
--2--2-2-2-2-2-2-2--2-2-2-2-2-2-|--2--2-2-2-2-2-2-2--2-2-2-2-2-2-|


  E  E  E  E  E.  E.  E     E  E  E  E  E.  E.  E
-------------------------|-------------------------|
--3-----3--5--7---5---3--|--5-----5--7--8---7---5--|
-----4-------------------|-----6-------------------|
-------------------------|-------------------------|
-------------------------|-------------------------|
-------------------------|-------------------------|


  E  E  E  E   E.  E.  E     E  E  E  E  E.  E.  E
--------------------------|-------------------------|
--7-----7--8--10---8---7--|--5-----5--7--8---7---5--|
-----7--------------------|-----6-------------------|
--------------------------|-------------------------|
--------------------------|-------------------------|
--------------------------|-------------------------|


  E  E  E  E  E.  E.  E     E  E  E  E  E.  E.  E
-------------------------|-------------------------|
--3-----3--5--7---5---3--|--5-----5--7--8---7---5--|
-----4-------------------|-----6-------------------|
-------------------------|-------------------------|
-------------------------|-------------------------|
-------------------------|-------------------------|


  E  E  E  E   E.  E.  E     E  E  E  E  E.  E.  E
--------------------------|-------------------------|
--7-----7--8--10---8---7--|--5-----5--7--8---7---5--|
-----7--------------------|-----6-------------------|
--------------------------|-------------------------|
--------------------------|-------------------------|
--------------------------|-------------------------|


  E  E  E  E  E.  E.  E     E  E  E  E  E.  E.  E
-------------------------|-------------------------|
--3-----3--5--7---5---3--|--3-----3--5--7---5---3--|
-----4-------------------|-----4-------------------|
-------------------------|-------------------------|
-------------------------|-------------------------|
-------------------------|-------------------------|


  E  E  E  E  E.  E.  E     Q    Q    H           W
-------------------------|---------------------|-------------------|
--3-----3--5--7---5---3--|--3----5----2--------|--L----------------|
-----4-------------------|---------------------|-------------------|
-------------------------|---------------------|-------------------|
-------------------------|---------------------|-------------------|
-------------------------|---------------------|-------------------|


              W                   W
-----------|-------------------|-------------------|
-----------|-------------------|-------------------|
-----------|--4----------------|--L----------------|
-----------|--4----------------|--L----------------|
-----------|--2----------------|--L----------------|
-----------|-------------------|-------------------|


  W                   H        H
-------------------|---------------------|-------------------|
-------------------|---------------------|-------------------|
--L----------------|--4--------4--------|-------------------|
--L----------------|--4--------4--------|-------------------|
--L----------------|--2--------2--------|-------------------|
-------------------|---------------------|-------------------|


                      H        H
-------------------|---------------------||
-------------------|---------------------||
-------------------|--4--------4--------||
-------------------|--4--------4--------||
-------------------|--2--------2--------||
-------------------|---------------------||


Duration Legend
---------------
W - whole
H - half
Q - quarter
E - 8th
S - 16th
T - 32nd
X - 64th
. - note dotted
|-n-|  - n-tuplets


Tablature Legend
----------------
L - tied note
x - dead note
g - grace note
(n) - ghost note
> - accentuded note
NH - natural harmonic
AH - artificial harmonic
TH - tapped harmonic
SH - semi harmonic
PH - pitch harmonic
h - hammer on
p - pull off
b - bend
br - bendRelease
pb - preBend
pbr - preBendRelease
brb - bendReleaseBend
n/ - tremolo bar dip
n - tremolo bar dive
-/n - tremolo bar Release up
/n - tremolo bar inverted dip
/n - tremolo bar return
-n - tremolo bar Release down
S - shift slide
s - legato slide
/ -  slide into from below or out of upwards
 -  slide into from above or out of downwards
~ - vibrato
W - wide vibrato
tr - trill
TP - tremolo picking
T - tapping
S - slap
P - pop
< - fade in
^ - brush up
v - brush down

            
            
Suggest correction
Creating personal tab
Creating personal tab
You can edit any tab online and save it as your Personal.

You can edit, replace or remove any tab part or add personal notes – all changes will be seen only by you.

Personal tabs can be accessed anytime from any device, even offline.
Learn more »
Give kudos to tab author, rate the tab!
1 2 3 4 5
comments
print report bad tab
guest
Wanna post a correction for this tab? Suggest correction