Oops, an error
Loading. Please wait.

Eras Tú chords

version 2
version 2

Whole song

by Wayo
25 views 1 this week
no commentswrite comment
1 2 3 4 5
3 more votes to show rating
add to favorites
×
Save as Personal and add changes to this tab that will be seen only by you. Learn more ›
×
You can save this tab as Personal to edit and correct it or add notes. All changes will be seen only by you. Learn more »
launch autoscroll
font size
0
reset
transpose
0
reset
display chords
guitar tuner
edit
Autoscroll
slow
fast
+/-
esc
set tempo
stop
Strumming
There is no strumming pattern for this song yet. and get +5 IQ
Intro: E - G#m - A - B 
e|-------------------------------------7----------------------
B|--------7-7/9-9-------7-7/9-9----------7/9-9-------7-7/9-9--
G|--9-9------------9-9------------4-4-----------4-4-----------
D|--9-9------------9-9------------6-6-----------6-6-----------
A|--7-7------------7-7------------6-6-----------6-6-----------
E|------------------------------------------------------------

e|----------------------------------------------------------------|
B|-------7-7/9-9--------7-7/9-9---------7-7/9-9-------7-7/9-9-----|
G|--5-5------------5-5-------------7-7-----------7-7-----------9--|
D|--7-7------------7-7-------------9-9-----------9-9-----------9--|
A|--7-7------------7-7-------------9-9-----------9-9-----------7--|
E|----------------------------------------------------------------|

  E      B          A            B             E...
Cae la noche en la ciudad, tu recuerdo viene y va
        B                A           B            C#m?
las estrellas hoy no están, estoy solo en este andar
              E         C#m                      B
he perdido la razón, oh oh oh, en tu nombre, el corazón. 

  E      B          A            B           E...
Es demasiada soledad, vivir un día si no estás
        B                A       B            C#m?
tus caricias quién tendrá, confesar es condenar
                  E              C#m                  B
y me abrazo esta canción, oh oh oh, a tu maldito corazón.

Coro
  E    G#m              A                    B
Eras tú, lo supe en el momento en que te vi, sabía que lo harías
  E    G#m            A                  B
Eras tú, haz roto en pedazos la ilusión, sabía que lo harías.

- Intro -   /   E...

Coro

  E      B          A            B           E...
Es demasiada soledad, vivir un día si no estás
        B          A            B            E...
es demasiada soledad, vivir un día si te vas
        B          A            B            E...
Es demasiada soledad, vivir un día si no estás
        B          A            B            E...
es demasiada soledad, vivir un día si te vas
       B                E
eras tú... maldito corazón.


 ·=========================·
 |   ;)  ¤«L·u·ï·S»¤  :)   |
 | luis_reque@  |
 ·=========================·

            
            
Suggest correction
Creating personal tab
Creating personal tab
You can edit any tab online and save it as your Personal.

You can edit, replace or remove any tab part or add personal notes – all changes will be seen only by you.

Personal tabs can be accessed anytime from any device, even offline.
Learn more »
Give kudos to tab author, rate the tab!
1 2 3 4 5
comments
print report bad tab
guest
Wanna post a correction for this tab? Suggest correction