Oops, an error
Loading. Please wait.

Dios Es Sólo Para Algunos tab

29 views 1 this week
no commentswrite comment
1 2 3 4 5
3 more votes to show rating
add to favorites
×
Save as Personal and add changes to this tab that will be seen only by you. Learn more ›
×
You can save this tab as Personal to edit and correct it or add notes. All changes will be seen only by you. Learn more »
launch autoscroll
font size
0
reset
how to read this tab
guitar tuner
edit
Autoscroll
slow
fast
+/-
esc
set tempo
stop
Dios si es solo para algunos, aqui estan los acordes
y algunos riff.....los solos saquenlos ustedes a mi me dan
lata escribirlos... pero no son dificiles, como clave les digo
que el tema parte en Dm y en el coro sube a Eb....
y eso un saludo a los de siempre chau......


1) Dm           Am       Dm           Am
   Tiene los ojos tristes, tanto recorrer
   Gm           Dm       Gm           C
   Camina hacia su casa, nadie la espera a tomar el te


Pte) Dm  Am  Dm  Am  Gm  Dm  Gm   C

E-----------------------------------------------------
B-----------------------------------------------------
G-----------------------------------------------------
D-----7--------------7----------7---8-7-5-------------
A---8---7-5-----7-8-----7-5----------------8-7-8------
E------------8--------------8-------------------------

E-----------------------------------------------------
B-----------------------------------------------------
G-----------------------------------------------------
D----5-7-----8-7-5------------------------------------
A---------8---------8-7-5-7-8-------------------------
E------------------------------8----------------------


1) Dm           Am       Dm           Am (riff 1)
   Un televisor muy solo, destella en la oscuridad
   Gm           Dm       Gm           C
   Los ladridos se diluyen, en el lugar que quisimos estar

riff 1
E--------------------------
B---1-0--------------------
G-------2----2-------------
D---------2----------------
A--------------------------
E--------------------------


   Bb

2) Eb       (riff 2) Gm          Eb      (riff 2) Gm
   Sigo mirando al cielo, espero ver algo caer
   Eb           Ab           Am
   Y tomarlo para poder llegar a ti,

riff 2
E--------------------------
B--------------------------
G----------7---------7-----
D---5-7-8-----5-7-8--------
A--------------------------
E--------------------------

Pte)


1) Un brillo en el espejo, una pequeña luz
   A veces me pregunto, si acaso alguien escucho su voz

1) Muchos esperan algo, nada que resolver
   Dios es solo para algunos, quieres mirar un suicidio de pie

   Bb

2) Sigo mirando al cielo, espero ver algo caer
   Y tomarlo para poder llegar a ti,
   Sigo mirando al cielo, espero ver algo caer
   Y tomarlo para poder llegar a ti,

Pte)

            
            
Suggest correction
Creating personal tab
Creating personal tab
You can edit any tab online and save it as your Personal.

You can edit, replace or remove any tab part or add personal notes – all changes will be seen only by you.

Personal tabs can be accessed anytime from any device, even offline.
Learn more »
Give kudos to tab author, rate the tab!
1 2 3 4 5
comments
print report bad tab
guest
Wanna post a correction for this tab? Suggest correction