Oops, an error
Loading. Please wait.

Lo Que Gatilló El Camino Hasta Aquí chords

17 views 1 this week
no commentswrite comment
1 2 3 4 5
3 more votes to show rating
add to favorites
×
Save as Personal and add changes to this tab that will be seen only by you. Learn more ›
×
You can save this tab as Personal to edit and correct it or add notes. All changes will be seen only by you. Learn more »
launch autoscroll
font size
0
reset
transpose
0
reset
simplify chords
display chords
guitar tuner
edit
Autoscroll
slow
fast
+/-
esc
set tempo
stop
Strumming
There is no strumming pattern for this song yet. and get +5 IQ
El solo en este tema lo hace un sintetizador o teclado,
yo lo emule lo mas q pude al sonido y lenguaje de la guitarra,
son las mismas notas pero con distintos sonidos, ustedes cachan po.
ya y eso no mas.. un tema sencillo e increible.


Lo que gatilló el camino hasta aquí


G5  F5  G5     G5  F5  G5

Gm             Eb              Cm             D
Me alejo de estos engaños, me alejo de aquel rebaño
Nada mas me importa ahora, solo armar mi propia historia


Cm             D               Cm             D
Hoy retrate a mi hermano, pa no ver su cara de viejo
Hoy deseche mis deseos, de esta fría realidad


G5  F5  G5     G5  F5  G5

Gm             Eb              Cm             D
Saque las fotos del mueble, pa tapizar las paredes
Comencé con las de niño, hasta llegar a mi muerte


Cm             D               Cm             D
De pronto llegue a un rincón, en la mitad de mi historia
Pensé en lo que gatillo, decidir el camino hasta aquí


Ab             Fm              Ab             Fm
Las flores ya se extinguieron, quedamos solos sin ruta
Eb             Gm              Cm              D
Nada es lo que nos dijeron, nunca mas volveré a la ciudad


solo: Gm, Eb, Cm, D   (x2)

E-----------------------------------------------------------
B-----------------------------------------------------------
G---5/7-7-5---------7/8--7--8-8-7-5-------------------------
D-----------8-7--5------------------8-7-8-7-5-7-8-7-5-4-----
A-----------------------------------------------------------
E-----------------------------------------------------------

E----------------------------------6-5------10--------------
B--------------------------------8-----8-7------------------
G---5/7-7-5---------7/87--5-7/8----------------------------
D-----------8-7--5------------------------------------------
A-----------------------------------------------------------
E-----------------------------------------------------------


Eb               D             Eb              D
Vivo fragmentos de ayer, que también serán mañana
Eb               D             Cm              D
Clausurare las ventanas, y así nunca mas volver
Cm               D
Nunca más, nunca mas volver.

Gm

            
            
Suggest correction
Creating personal tab
Creating personal tab
You can edit any tab online and save it as your Personal.

You can edit, replace or remove any tab part or add personal notes – all changes will be seen only by you.

Personal tabs can be accessed anytime from any device, even offline.
Learn more »
Give kudos to tab author, rate the tab!
1 2 3 4 5
comments
print report bad tab
guest
Wanna post a correction for this tab? Suggest correction