Oops, an error
Loading. Please wait.

Mubi (La Niña Del Mar) tab

19 views 1 this week
no commentswrite comment
1 2 3 4 5
3 more votes to show rating
add to favorites
×
Save as Personal and add changes to this tab that will be seen only by you. Learn more ›
×
You can save this tab as Personal to edit and correct it or add notes. All changes will be seen only by you. Learn more »
launch autoscroll
font size
0
reset
how to read this tab
guitar tuner
edit
Autoscroll
slow
fast
+/-
esc
set tempo
stop

E--5h7-7--5h7-7------------------------------
B----------------3h5-5--3h5-5--[3]-----------
G--------------------------------------------   X 4
D--------------------------------------------
A--------------------------------------------
D--------------------------------------------


E---5-8-7-5-----------------------------[3]--
B-----------6--3-3h5--6-5-3-5--3h5h31-------
G--------------------------------------------   X 3
D--------------------------------------------
A--------------------------------------------
D--------------------------------------------


                      G
E---------------------3----
B--3-1---3-1---3-1----3----
G------0-----0-----0--0----
D---------------------0----
A---------------------2----
D---------------------3----


Bb
  Carguen los hombros de Dios
C5               D5#     B5#
  con luces en la oscuridad
              A5                 G5
  Flota en el aire tu olor otra vez
     F#
  aqui


    Bb    C5  D5#  B5#  A5   G5   F#
----1-----------------------------2----------
----1-----------------------------2----------
----3-----5----8------------------3----------
----3-----5----8----8---7----5----4----------
----1-----3----6----8---7----5----4----------
----1---------------6---5----3----2----------


las [ ] se tocan en ciertas partes de la canción
deben escucharla para hacerse la idea...


** dedicada a la Contulmana **


MI primer tab,
tomen eso en cuenta si
encuentran algun error.
En todo caso cualquier
arreglo o mejora, por
favor, haganmela saber a

casidemonio@
Suggest correction
Creating personal tab
Creating personal tab
You can edit any tab online and save it as your Personal.

You can edit, replace or remove any tab part or add personal notes – all changes will be seen only by you.

Personal tabs can be accessed anytime from any device, even offline.
Learn more »
Give kudos to tab author, rate the tab!
1 2 3 4 5
comments
print report bad tab
guest
Wanna post a correction for this tab? Suggest correction