Oops, an error
Loading. Please wait.

Si, Me Saqué Los Dientes tab

35 views 1 this week
no commentswrite comment
1 2 3 4 5
3 more votes to show rating
add to favorites
×
Save as Personal and add changes to this tab that will be seen only by you. Learn more ›
×
You can save this tab as Personal to edit and correct it or add notes. All changes will be seen only by you. Learn more »
launch autoscroll
font size
0
reset
how to read this tab
guitar tuner
edit
Autoscroll
slow
fast
+/-
esc
set tempo
stop
Riff Intro (x2)

e -2s-4--2-0----------------
B ------------4-5-2-1-1-2---
G --------------------------
D --------------------------
A --------------------------
E --------------------------

e -9-12-11-9-----9-------------
B -----------9-9---9-----------
G -------------------11-9-11b--
D -----------------------------
A -----------------------------
E -----------------------------


  C#5             A5           Em            G#5
Si, hoy me saque los dientes ya nadie me viene a ver
No nadie golpea la puerta al fin podré descansar
Si, comienza mi vida eterna No pararé de reír
Si, sacaré un cigarrillo Y no pararé de reír
Si, hoy me saque los dientes ya nadie me viene a ver
No, ya nadie quiere verme En este estado

Coro:

 F#5                 A5
Veo en tu cara la ingravidez

Riff (x4)

e ---------------
B ---------------
G ---------------
D --2-2----------
A --2-2-------2-2
E -------2-3-----

(el último riff terminarlo en F5)

 F#5                A5
De decisiones que no te hacen ser

  G#5           C#5
No paro de reir


Hoy me saque los dientes ya nadie me viene a ver
Deja a un lado las sombras esa luz no te hace ver
Son falsos manantiales hechos de brillo y papel
Si, son falsos manantiales los que te hacen perder
Si, hoy me saque los dientes ya nadie me viene a ver

Coro:

Solo:

e ---9-11-12-11--9-----9----------------
B -9---------------9-9---9----------9---
G -------------------------11-9-11b-----
D --------------------------------------
A --------------------------------------
E --------------------------------------

e ---9-11-12-14-12-10-9------------------
B -9--------------------9----------------
G ------------------------11-9-11--------
D ---------------------------------------
A ---------------------------------------
E ---------------------------------------

e ---9-11-12-11--9-----9----------------
B -9---------------9-9---9----------9---
G -------------------------11-9-11b-----
D --------------------------------------
A --------------------------------------
E --------------------------------------

e ---------------------------------------9--
B -11/14--12----------------------------9---
G -----------10/13--11--9/11--9--------9----
D ------------------------------9/11--9-----
A ------------------------------------------
E ------------------------------------------


Coro:

Puente:

 Em             Am       Em                  Am
Mi pecho se retorcerá. Hundo en la almohada la verdad

Coro:

Outro (X2):

e -------------------------------
B ---2-4-5-4-2------2------------
G -1-----------1--1---1-------1--
D ----------------------4-2-4----
A -------------------------------
E -------------------------------

e -------------------------------
B ---2-4-5-7-5-4-2---------------
G -1---------------1-------------
D -------------------4-2---------
A -------------------------------
E -------------------------------

C#5

            
            
Suggest correction
Creating personal tab
Creating personal tab
You can edit any tab online and save it as your Personal.

You can edit, replace or remove any tab part or add personal notes – all changes will be seen only by you.

Personal tabs can be accessed anytime from any device, even offline.
Learn more »
Give kudos to tab author, rate the tab!
1 2 3 4 5
comments
print report bad tab
guest
Wanna post a correction for this tab? Suggest correction