Oops, an error
Loading. Please wait.

Corazón Mío tab

version 1
version 1

Whole song

77 views 1 this week
no commentswrite comment
1 2 3 4 5
3 more votes to show rating
add to favorites
×
Save as Personal and add changes to this tab that will be seen only by you. Learn more ›
×
You can save this tab as Personal to edit and correct it or add notes. All changes will be seen only by you. Learn more »
launch autoscroll
font size
0
reset
how to read this tab
guitar tuner
edit
Autoscroll
slow
fast
+/-
esc
set tempo
stop
Esta tablatura se la quiero dedicar a una chica que me tiene loco... y
a pesar de que muchas personas estén en contra de nuestra relación...
nosotros seguimos juntos... es más, creo que esas dificultades hacen más
interesante y mas fuerte nuestra relación...
disfruten la tablatura... y cualquier consulta m contactan :)


E||-----------5----------5--|--------------5-----3--2--|
B||--------2----------2-----|--------2-----------------|
G||-----2----------2--------|-----2-----2-----2--------|
D||--0----------------------|--0-----------------------|
A||-------------------------|--------------------------|
E||-------------------------|--------------------------|


--2-----3----------------|---------------5------|--3---------------3----|
-----------0----------0--|--L------------3------|--0--------0---------0-|
-----0-------------2-----|----------2-----------|--------0--------------|
----------------0--------|-------0--------------|-----2-----------------|
-------------------------|----------------------|-----------------------|
--3--------3-------------|---------------2------|--0--------------------|


--------------3-----2--0--|--------0---------------|--------------------|
--------0-----------------|--3--------2------------|--2--------3-----5--|
-----0-----0-----0--------|-----2---------------2--|-----2--------------|
--0-----------------------|------------------2-----|--------2-----------|
--------------------------|--0--------0------------|--0--------2-----4--|
--------------------------|------------------------|--------------------|


-----------2------L----|-----------2--L--------|------------------------|
--------5--------------|--------2--------------|-----------0----------0-|
-----2-----------------|-----2-----------------|--------2----------2----|
--0--------------------|--0--------------------|-----0----------0-------|
-----------------------|-----------------------|------------------------|
-----------------------|-----------------------|--3---------------------|


--2------------5-------|-----------3------------|-----------------------|
---------------3-------|------------------------|--2--------3-----5-----|
---------2-------------|--------0------------0--|-----2-----------------|
-----------------------|-----2------------2-----|--------2--------------|
-----------------------|------------------------|--0--------2-----4-----|
---------------2-------|--0---------------------|-----------------------|


-----------2---------2--|--5--------3--2---------|--2--------2--L-------|
--------5---------5-----|-----2-----------5------|--------0-------------|
-----2------------------|--------2---------------|-----2----------------|
--0---------------------|--0---------------------|--0-------------------|
------------------------|------------------------|----------------------|
------------------------|------------------------|----------------------|


-----------2--L--------|-------------------------|--2--------------5----|
--------2--------------|-----------0----------0--|-----------0-----3----|
-----2-----------------|--------2----------2-----|--------2-------------|
--0--------------------|-----0----------0--------|-----0----------------|
-----------------------|-------------------------|----------------------|
-----------------------|--3----------------------|--3--------------2----|


----------------0--------|------------------------|--------2-5----------|
-----------3-------------|--2--------3-----5------|------2------2-----2-|
--------0-------------0--|-----2------------------|---2------------2----|
-----2-------------2-----|--------2---------------|-0-------------------|
-------------------------|--0--------2-----4------|----------4----------|
--0----------------------|------------------------|---------------------|


-----------2--------------|----------------2-------|--------------------|
--------3--------------3--|-----------0------------|--2--------3-----5--|
-----2--------------0-----|--------2----------2----|-----2--------------|
-----------------2--------|-----0------------------|--------2-----------|
--2-----------0-----------|------------------------|--0--------2-----4--|
--------------------------|--3---------------------|--------------------|


-----------5----L--------|--------------5-----3--2--|--2-----3----------------|
--------2-------------2--|--------2-----------------|-----------0----------0--|
-----2-------------2-----|-----2-----2-----2--------|-----0-------------2-----|
--0----------------------|--0-----------------------|----------------0--------|
-------------------------|--------------------------|-------------------------|
-------------------------|--------------------------|--3--------3-------------|


------------------------|-----------2--L--------|-----------2--L--------|
--2--------3-----5------|--------2--------------|--------0--------------|
-----2------------------|-----2-----------------|-----2-----------------|
--------2---------------|--0--------------------|--0--------------------|
--0--------2-----4------|-----------------------|-----------------------|
------------------------|-----------------------|-----------------------|


-------------------------|----------------5-------|-----------3-------------|
-----------0----------0--|-----------0----3-------|----------------------0--|
--------2----------2-----|--------2---------------|--------0----------0-----|
-----0----------0--------|-----0------------------|-----2----------2--------|
-------------------------|------------------------|-------------------------|
--3----------------------|--3-------------2-------|--0----------------------|


------------------------|-----------2----------2--|--5--------3--2---------|
--2--------3-----5------|--------5----------5-----|--------2--------5------|
--------2---------------|-----2----------2--------|-----2------------------|
-----2------------------|--0----------------------|--0---------------------|
--0--------2-----4------|-------------------------|------------------------|
------------------------|-------------------------|------------------------|


-----------2--L--------|-----------2--L--------|-------------------------|
--------0--------------|--------2--------------|-----------0----------0--|
-----2-----------------|-----2-----------------|--------2----------2-----|
--0--------------------|--0--------------------|-----0----------0--------|
-----------------------|-----------------------|-------------------------|
-----------------------|-----------------------|--3----------------------|


-----------------5------|----------------0--------|----------------------|
-----------0-----3------|-----------3-------------|--2--------3-----5----|
--------2---------------|--------0----------0-----|-----2----------------|
-----0------------------|-----2----------------2--|--------2-------------|
------------------------|-------------------------|--0--------2-----4----|
--3--------------2------|--0----------------------|----------------------|


--------2--2-----------2--|-----------2--------------|--------------2-------|
-----------------2--3-----|--------3--------------3--|----------0-----------|
-----2--------------------|-----2--------------0-----|--------2----------2--|
--0-----------------------|-----------------2--------|-----0----------0-----|
--------------4-----------|--2-----------0-----------|----------------------|
--------------------------|--------------------------|--3-------3-----------|


----------------------|-----------2-----3--2-----|--2--------0----5------|
--2------3-----5------|--------5--------------5--|--------3-------3------|
----------------------|-----2--------2-----------|-----2-----------------|
----------------------|--0-----------------------|--0--------------------|
--0------2-----4------|--------------------------|-----------------------|
----------------------|--------------------------|----------------2------|


           ^

--3--------3---------|------------5---------|-----------5---------|
--0--------0---------|--2---------2---------|--2--------2------2--|
-----------0---------|--2------2--2---------|--2--------2------3--|
-----------0---------|-------------------2--|--4--------4------4--|
---------------------|----------------------|---------------------|
--3---------------0--|--3-------------------|--2---------------2--|


-----------------------|--------0--------------0--|----------------3----|
--L-------2-----3------|--3-----------------3-----|-----------0---------|
--L-------3-----3------|-----4-----------2--------|--------2------------|
--L----4-----4--2------|--------------------------|-----0---------------|
----------------3------|--2--------2--0-----------|---------------------|
--L--------------------|--------------------------|--3--------3-------3-|


----------------------|----------------2-------|--3--2-----0----5------|
--2------3-----5------|--------5---------------|----------------3------|
----------------------|-----2-----2-------2----|--------2--------------|
----------------------|--0---------------------|--0--------------------|
--0------2-----4------|------------------------|-----------------------|
----------------------|------------------------|----------------2------|


--3-----------3--------|--2------2-----------|-----------0-----------|
--0--------------------|--2------2-----------|--------3--3-----------|
---------0-------0-----|---------3-----------|-----4-----4-----------|
-----------------------|---------4-----------|-----------------------|
-----------------------|---------------------|--2---------------2----|
--3-----------------0--|--2-------------2----|-----------------------|


-----------------------|-----------2------------|-------------------------|
--0--------0------L----|--------5-------5-------|-----------2----------2--|
--0-----0--0------L----|-----2------------------|--------0----------0-----|
--0--0-----0------L----|--0------------------0--|-----2----------2--------|
-----------------------|------------------------|--0----------------------|
--3--------------------|------------------------|-------------------------|


-------------------------|--------------------2-----|-----2--------2-----2-|
--L--------2-------------|-----------0--------------|--0--------0------0---|
--------0----------0-----|--------2--------2-----2--|--------2-------2-----|
-----2----------2--------|-----0--------0-----------|----------------------|
----------------------0--|--------------------------|----------------------|
-------------------------|--3-----------------------|----------------------|


-----------2--3--2--------|--0--------5--------3-0-----|
--------3-----------3-----|--------3--------3------3---|
-----2-----------------2--|-----2--------2-----------0-|
--0-----------0-----------|----------------------------|
--------------------------|--3--------3--------3-------|
--------------------------|----------------------------|


--0--------3-------3-0-----|-----------3-------------|
--3-----3-------3------3---|--------3----------3-----|
--0--0-------------------0-|-----0----------0-----0--|
---------------------------|-------------------------|
--2------------------------|--1----------------------|
---------------------------|-------------------------|


-----------3--2-----------|--0--------5--------3-0-----|
--------3--------3-----3--|--------3--------3------3---|
-----2--------------2-----|-----2--------2-----------0-|
--0--------0--------------|----------------------------|
--------------------------|--3--------3--------3-------|
--------------------------|----------------------------|


--0--------3-------------|-----------0----------0--|--L--------0--------------|
--3-----3----------3-----|--------3----------3-----|--------3----------3------|
--0--0----------0-----0--|-----0----------0--------|-----0----------0---------|
-------------------------|-------------------------|--------------------------|
--2----------------------|--1----------------------|--------------------------|
-------------------------|-------------------------|----------------------0-2-|


                                               ^                   ^

--------------5--------5--|--3--------3-------------|--------------2--------|
-----------0--------3-----|--------0-----3-----2----|--------5-----5--------|
--------2--------2--------|-----0-----------2-------|-----2-----2--2--------|
-----0--------------------|--2----------------------|--0-----------0--------|
--------------------------|--------------0-----0----|-----------------------|
--3-----------2-----------|--0----------------------|-----------------------|

            
            
Suggest correction
Creating personal tab
Creating personal tab
You can edit any tab online and save it as your Personal.

You can edit, replace or remove any tab part or add personal notes – all changes will be seen only by you.

Personal tabs can be accessed anytime from any device, even offline.
Learn more »
Give kudos to tab author, rate the tab!
1 2 3 4 5
comments
print report bad tab
guest
Wanna post a correction for this tab? Suggest correction