Oops, an error
Loading. Please wait.

Corazón Mío tab

version 2
version 2

Whole song

57 views 1 this week
no commentswrite comment
1 2 3 4 5
3 more votes to show rating
add to favorites
×
Save as Personal and add changes to this tab that will be seen only by you. Learn more ›
×
You can save this tab as Personal to edit and correct it or add notes. All changes will be seen only by you. Learn more »
launch autoscroll
font size
0
reset
how to read this tab
guitar tuner
edit
Autoscroll
slow
fast
+/-
esc
set tempo
stop
Hola soy Augusto ?tito? aquí mando otra canción espero q
este bien y espero q tmb les guste esta canción se la
dedico a todas mis amigas tanto las de la universidad
?alas peruanas? (melissa, pamela, jessica, Ingrid, .... )
como a mis amigas de mi cole q son (carla, andrea, erica,
leslye, evelyn, geraldine.......) las quiero a todas


Intro

e|-------5-----5---5--3-2-3---------------3--3------3----
B|-----3-----3---3----------0-------3---0----0----0------
G|---4-----4----------------------4---4---------0--------
D|-0----------------------------5------------------------
A|-------------------------------------------------------
E|-------------------------------------------------------

e|-2-3-2----------------0-2---|
B|-------3-5-2-----2-3--------|
G|----------------------------|
D|----------------------------|
A|----------------------------|
E|----------------------------|

Parte 1

D                      G
No hay corazón en este mundo
Em        A                 D
que pueda amarte mas que el mío
D                     G
late por ti para quererte..
Em        A            D
y no sentirse tan vacío..
  Bm       Em      A       D
corazón..corazón..corazón mío..

e|-------5-----5---5--3-2-3---------0-2----|
B|-----3-----3---3----------3---2-3--------|
G|---4-----4-------------------------------|
D|-0---------------------------------------|
A|-----------------------------------------|
E|-----------------------------------------|

Parte 1
No hay corazón sobre la tierra
mas terco que este loco amigo..
vive empeñado en que lo quieras
y que le entregues tu cariño
corazón..corazón..corazón mío...

Parte 2

G      A         F#m
Ignora él la realidad
     F#              Bm
y mi razón le quiere hablar
    A        G
le dice que no...
            A                  D
que no es verdad que tu no le amas...
 G       F#             Bm
pero el insiste y no le escucha
 A                       D
y terco así sigue en la lucha
 A                     G
fiel a su causa a su ideal..

Parte 1
Mi corazón pobre inocente...
nunca aprendió a decir mentiras
dice que tu sigues presente..
y que eres parte de su vida
corazón..corazón... loco suicida.

Parte 2
Voy a dejar al corazón
que siga con su devoción
y a mi razón le pediré
que lo perdone...
por que abriría en él la herida
si tu te escapas de su vida
te necesita entiéndelo..

e|-------5-----5---5--3-2-3---------0-2----|
B|-----3-----3---3----------3---2-3--------|
G|---4-----4-------------------------------|
D|-0---------------------------------------|
A|-----------------------------------------|
E|-----------------------------------------|

Parte 1
No hay corazón
en este mundo que pueda
amarte mas que el mío
late por ti para quererte
y no sentirse tan vacío
corazón..corazón..corazón mío...


corazón..corazón........corazón mío...

            
            
Suggest correction
Creating personal tab
Creating personal tab
You can edit any tab online and save it as your Personal.

You can edit, replace or remove any tab part or add personal notes – all changes will be seen only by you.

Personal tabs can be accessed anytime from any device, even offline.
Learn more »
Give kudos to tab author, rate the tab!
1 2 3 4 5
comments
print report bad tab
guest
Wanna post a correction for this tab? Suggest correction