Oops, an error
Loading. Please wait.

Buscándote tab

by Wizard
78 views 1 this week
no commentswrite comment
1 2 3 4 5
3 more votes to show rating
add to favorites
×
Save as Personal and add changes to this tab that will be seen only by you. Learn more ›
×
You can save this tab as Personal to edit and correct it or add notes. All changes will be seen only by you. Learn more »
launch autoscroll
font size
0
reset
how to read this tab
guitar tuner
edit
Autoscroll
slow
fast
+/-
esc
set tempo
stop
Wizard
Buscándote
AUTOR: Wizard
ALBUM: Antología


Hola a todos los amigos de la guitarra,
he aquí otra canción de los Wizard, una gran banda ecuatoriana.
Se la dedico a aquella mujer que me hace perder el sueño y
la concentración en mi diario vivir. ?Alexandra J?
Para cualquier duda o comentario escríbanme
a y2jjulio@
Sin mas palabras aquí esta la canción.
Disfrútenla

INTRO DE TECLADO Y GUITARRA

TECLADO:


E||-------|--0----3----0----3----|
B||-------|--0----5----0----5----|
G||-------|--0----5----0----5----|
D||-------|--2----5----2----5----|
A||-------|--2----3----2----3----|
E||-------|--0---------0---------|


--3----3---3-2--------|--3--2--0----0------0--2--|
--3----3---3-3--------|--3--3--0--3-0------0--3--|
--0-------------------|-----------2--------------|
--0-------------------|--------------------------|
--2-------------------|--------------------------|
--3-------------------|--------------------------|

--3--------3-2------2-3-5-|--7----7--5-3--2--0----0-2-|
--3--------3-3------3-3-5-|--7----7--7-3--3--0--3-0-3-|
--------------------------|---------------------2-----|
--------------------------|---------------------------|
--------------------------|---------------------------|
--------------------------|---------------------------|

--3--------3-2------3--|--3--2--0----0------0--2--|
--3--------3-3------3--|--3--3--0--3-0------0--3--|
-----------------------|-----------2--------------|
-----------------------|--------------------------|
-----------------------|--------------------------|
-----------------------|--------------------------|


--3--------3-2------2-3-5-|--7----7--5-3--2--0----0-2-|
--3--------3-3------3-3-5-|--7----7--5-3--3--0--3-0-3-|
--------------------------|---------------------2-----|
--------------------------|---------------------------|
--------------------------|---------------------------|
--------------------------|---------------------------|


--3----------------|-------|-------|-------|-------|
--3----------------|-------|-------|-------|-------|
-------------------|-------|-------|-------|-------|
-------------------|-------|-------|-------|-------|
-------------------|-------|-------|-------|-------|
-------------------|-------|-------|-------|-------|

GUITARRA: Este arpegio se toca en el intro y en las estrofas I y II

     G               F#m9-
E||----------3-------------------2-------|
B||--------3---3---------------2---2-----|
G||------0-------0-----------0-------0---|
D||----0-------------------2-------------|
A||--------------------------------------|
E||--3-------------3-2-----------------2-|

  Em
-----------0---------------------|
---------0---0-----0---0---------|
-------0-------0-----0---0-------|
-----2---------------------------|
---------------------------------|
--0--------------0---------0--2--|

ESTROFA I

G              F#m9-         Em
Quisiera encontrarte, tal vez poder hablar
G              F#m9-         Em
Y en cualquier parte poderte mirar
G              F#m9-         Em
Quisiera atrapar tus ojos y no dejarte escapar
G              F#m9-         Em
Quisiera tener tus labios y poderte besar


CORO
   C     D   Em
Buscándote, en cualquier lugar
   C     D   Em
Buscándote, te tengo que encontrar
   C     D
Buscando

INTERMEDIO DE TECLADO Y GUITARRA:

-------|--3---3-3----2---2-2----|
-------|--3---3-3----3---3-3----|
-------|------------------------|
-------|------------------------|
-------|------------------------|
-------|------------------------|

--3--2--0----0------0--2--|--3---3-3----2---2-2----|
--3--3--0--3-0------0--3--|--3---3-3----3---3-3----|
-----------2--------------|------------------------|
--------------------------|------------------------|
--------------------------|------------------------|
--------------------------|------------------------|

--3--2--0----0------0--2--|--0----3----0----3----|
--3--3--0--3-0------0--3--|--0----5----0----5----|
-----------2--------------|--0----5----0----5----|
--------------------------|--2----5----2----5----|
--------------------------|--2----3----2----3----|
--------------------------|--0---------0---------|

--3--------3-2------2-3-5-|--7----7--5-3--2--0----0-2-|
--3--------3-3------3-3-5-|--7----7--7-3--3--0--3-0-3-|
--------------------------|---------------------2-----|
--------------------------|---------------------------|
--------------------------|---------------------------|
--------------------------|---------------------------|

--3--------3-2------3--|--3--2--0----0----------|
--3--------3-3------3--|--3--3--0--3-0----------|
-----------------------|-----------2------------|
-----------------------|------------------------|
-----------------------|------------------------|
-----------------------|------------------------|
GUITARRA
?Esto va con distorsión?
-------|-------|----------10---------------9-------|
-------|-------|--8~--8-8----8~--8-7~--7-7---7~--7-|
-------|-------|-----------------------------------|
-------|-------|-----------------------------------|
-------|-------|-----------------------------------|
-------|-------|-----------------------------------|

---------------------------------------|
---7/8-8---8/10-10---10/12----127-----|
---------------------------------------|
---------------------------------------|
---------------------------------------|
---------------------------------------|
?Esto va sin distorsión?
----------------------------------|
--------0-------1-------0-------1-|
------0-------0-------0-------0---|
----2-------2-------2-------2-----|
--2-------3-------2-------3-------|
----------------------------------|

  G               F#m9-
----------3-------------------2-------|
--------3---3---------------2---2-----|
------0-------0-----------0-------0---|
----0-------------------2-------------|
--------------------------------------|
--3-------------3-2-----------------2-|


  Em             Em
-----------0----------------------|
---------0---0------0---0---------|
-------0-------0------0---0-------|
-----2----------------------------|
----------------------------------|
--0--------------0----------0--2--|


ESTROFA II

G              F#m9-         Em
Un día estuve solo, me puse a pensar
G              F#m9-         Em
Como pasa el tiempo y lo que dejé atrás
G              F#m9-         Em
Mirando tus recuerdos quise encontrar
G              F#m9-         Em
Ese gran amor que hoy no está.


CORO

   C5    D5  E5
Buscándote, en cualquier lugar
   C5    D5  E5
Buscándote, te tengo que encontrar
   C5    D5
Buscando

INTERMEDIO: Se repite la parte de guitarra con distorsión

ESTROFA III

    C5          G5
Me pueden explicar
    C5          G5
Como encontrar
    C5          G5
Este gran amor
    C5          G5   D5
Que hoy no esta

SOLO DE GUITARRA

Se repite el coro y listo

ACORDES USADOS:

     G    F#m9- Em   D       C
E||--3----2-----0----2----|--0----------------|
B||--3----2-----0----3----|--1----------------|
G||--0----0-----0----2----|--0----------------|
D||--0----2-----2----0----|--2----------------|
A||--2----0-----2---------|--3----------------|
E||--3----2-----0---------|-------------------|


  G5   C5   D5   E5
----------------------|-------|-------|-------|-------|
----------------------|-------|-------|-------|-------|
-------5----7----9----|-------|-------|-------|-------|
--5----5----7----9----|-------|-------|-------|-------|
--5----3----5----7----|-------|-------|-------|-------|
--3-------------------|-------|-------|-------|-------|

            
            
Suggest correction
Creating personal tab
Creating personal tab
You can edit any tab online and save it as your Personal.

You can edit, replace or remove any tab part or add personal notes – all changes will be seen only by you.

Personal tabs can be accessed anytime from any device, even offline.
Learn more »
Give kudos to tab author, rate the tab!
1 2 3 4 5
comments
print report bad tab
guest
Wanna post a correction for this tab? Suggest correction