Oops, an error
Loading. Please wait.

Te Extraño tab

by Xtreme
1,370 views 3 this week
no commentswrite comment
1 2 3 4 5
x 3
add to favorites
×
Save as Personal and add changes to this tab that will be seen only by you. Learn more ›
×
You can save this tab as Personal to edit and correct it or add notes. All changes will be seen only by you. Learn more »
launch autoscroll
font size
0
reset
how to read this tab
guitar tuner
edit
Autoscroll
slow
fast
+/-
esc
set tempo
stop
usar cejillo en el 2do traste

      F#m
El tiempo pasa y pasa y yo sigo asi,
   D
queriendote en mis brasos sin poderte tener
   E
Y busco una salida para no verme asi,
    F#m
Ay que lejo de mi lado tu amor esta de mi.

F#m
Yo lloro y lloro al saber que no estas,
     D
Con mis labios mira mami yo te quiero besar
   E
Y trato y trato por no sentirme asi,
       F#m
Pero es malo saber que ya no me queieres a mi.


CORO
F#m               D                       E
Mira , como estoy sufriendo, me quemo por dentro
              F#m
Por sentir tu amor
F#m               D                  E
Mami, no me hagas eso ,sabes que te quiero
            F#m
Con todo el Corazon

 PUNTEO
E--------h-------9--9--9--9----------h-------10--10--10--10---
B---10-1012-10-12-12-10-12------10-1012-10-12--12--10--12-----
G-11--------------------------11------------------------------
D-------------------------------------------------------------
A-------------------------------------------------------------
E-------------------------------------------------------------

E-----h------12--12--12--12--I-1417-14------------------I
B--9-912-9-12--12--12--12----I---h-----17-14---------14-I
G-9--------------------------I---------------16-14-16---I
D----------------------------I--------------------------I
A----------------------------I--------------------------I
E----------------------------I--------------------------I


    F#m
Te amo te extrano quiero verte junto a mi,
    D
abrasado de las manos y estar junto a ti
      E
Pero me mata la conciensa al saber que no esta aqui,
    F#m
aw baby why u got to be doing this to me


     F#m
Me duele tanto de saber que ya no eres para mi,
    D
y ese anillo perpesido que contigo comparti
     E
Me duele tanto saber que ya no eres para mi,
      F#m
Te extrano.


     A
Ay amor
         E             F#m             D
Como me duele, estar sin ti, tu no me amas


CORO
F#m               D                       E
Mira, como estoy sufriendo, me quemo por dentro
              F#m
Por sentir tu amor

F#m                D                E
Mami, no me hagas eso, sabes que te quiero
            F#m
Con todo el Corazon

E-------------------------------14-17-14-----------------2-
B-------------------------14-17----------17-14-----------2-
G-------------------14-16----------------------16-14-----2-
D-------------14-16--------------------------------------6-
A-------14-16--------------------------------------------4-
E-14-17--------------------------------------------------2-

E--------------------------------2--5--2-----------------9-
B--------------------------2--5----------5--2-----------10-
G-------------------2--4-----------------------4--2-----13-
D-------------2--4--------------------------------------11-
A-------2--5---------------------------------------------9-
E--2-5-----------------------------------------------------


cualquier consulta a jano24frets@
Suggest correction
Creating personal tab
Creating personal tab
You can edit any tab online and save it as your Personal.

You can edit, replace or remove any tab part or add personal notes – all changes will be seen only by you.

Personal tabs can be accessed anytime from any device, even offline.
Learn more »
Give kudos to tab author, rate the tab!
1 2 3 4 5
comments
print report bad tab
guest
Wanna post a correction for this tab? Suggest correction