Oops, an error
Loading. Please wait.

Junto A Ti Perdí El Temor chords

by Xtremo
26 views 1 this week
no commentswrite comment
1 2 3 4 5
3 more votes to show rating
add to favorites
×
Save as Personal and add changes to this tab that will be seen only by you. Learn more ›
×
You can save this tab as Personal to edit and correct it or add notes. All changes will be seen only by you. Learn more »
launch autoscroll
font size
0
reset
transpose
0
reset
simplify chords
display chords
guitar tuner
edit
Autoscroll
slow
fast
+/-
esc
set tempo
stop
Strumming
There is no strumming pattern for this song yet. and get +5 IQ
INTRO: (GUITARRA)


6C ------------------------------------------------
5C ----5---4---4---5---5---4---4---5---5-----------
4C --7---7---7---7---7---7---7---7---7-------------

6C ------------------------------------------------
5C -----9---7---7----9----9----7---7---9----9------
4C --11---9---9---11---11---9---9---11---11--------

6C ------------------------------------------------
5C ----7---5---5---7---7---5---5---7---7-----------
4C --9---7---7---9---9---7---7---9---9-------------

6C ------------------------------------------------
5C ----5---4---4---5---5---4---4---5---5-----------
4C --7---7---7---7---7---7---7---7---7-------------


ESTROFA1:

D5                    A5
Si fuera al fondo del mar
               F#5
Y hay podría encontrar
           E5
Nada que a ti se pudiese

Igualar


ESTROFA2:

D5                  A5
Las estrellas y el sol
                   F#5
Oigan de tu gran bondad
                    E5
Y el destello de tu gloria
                     (D5-E5)
Que el señor reflejara


CORO:

D5                    A5                 F#5
Para ti para ti es mi amor que saco del corazón
            E5
Eres tu mi jesus a junto a ti perdí el temor
D5              A5               F#5
Para ti es mi canción y con toda devoción
               E5
Cantare de tu amor junto a ti perdí el temor


INTRO
ESTROFA1
ESTROFA2
CORO


PUENTE:

D5-C#5-B5 X2 (E5) F#5-G#5  X2


LAS NOTAS SON CONTINUAS


PRE-CORO:

D5                             A5
nunca encontrare nadie igual a ti
F#5                    E5
tu luz brillara por la eternidad     x2


BUENO HNOS!!! bonito tema espero les sirva
y el puente tienen que escuchar el tema como
son los cortes con las notas Saludos!!! cualquier
pregunta mi mail:
borqxezl@

            
            
Suggest correction
Creating personal tab
Creating personal tab
You can edit any tab online and save it as your Personal.

You can edit, replace or remove any tab part or add personal notes – all changes will be seen only by you.

Personal tabs can be accessed anytime from any device, even offline.
Learn more »
Give kudos to tab author, rate the tab!
1 2 3 4 5
comments
print report bad tab
guest
Wanna post a correction for this tab? Suggest correction