Oops, an error
Loading. Please wait.

Márcame La Piel tab

by Yahir
24 views 1 this week
no commentswrite comment
1 2 3 4 5
3 more votes to show rating
add to favorites
×
Save as Personal and add changes to this tab that will be seen only by you. Learn more ›
×
You can save this tab as Personal to edit and correct it or add notes. All changes will be seen only by you. Learn more »
launch autoscroll
font size
0
reset
how to read this tab
guitar tuner
edit
Autoscroll
slow
fast
+/-
esc
set tempo
stop
Hola me llamo Augusto ?tito? aquí mando esta canción q esta bien
chévere espero q les guste y se la dedico a todas mis amigas
tanto las de la universidad ?alas peruanas? (melissa, pamela,
jessica, Ingrid, ......... ) como a mis amigas de mi cole q son
(carla, andrea, erica, leslye, evelyn, geraldine.......) las
quiero a todas


Intro
e|------7------7------7--12----------7------7------7------7---------|
B|---10-----10-----10-------------10-----10-----10-----10-----------|
G|-9------9------9--------------9------9------9------9--------------|
D|------------------------------------------------------------------|
A|------------------------------------------------------------------|
E|------------------------------------------------------------------|


  Márcame      la     piel                    insiste si me
e|------7------7------7--12----------7------7------7------7---------|
B|---10-----10-----10-------------10-----10-----10-----10-----------|
G|-9------9------9--------------9------9------9------9--------------|
D|------------------------------------------------------------------|
A|------------------------------------------------------------------|
E|------------------------------------------------------------------|

   quieres       convencer                    que acariciando
e|------7------7------7--12----------7------7------7------7---------|
B|---10-----10-----10-------------10-----10-----10-----10-----------|
G|-9------9------9--------------9------9------9------9--------------|
D|------------------------------------------------------------------|
A|------------------------------------------------------------------|
E|------------------------------------------------------------------|

   eel   aiiiiiiiiiiiiire      tendrás en mi mirada          una
e|------7------7------7--12----------7------7------7------7---------|
B|---10-----10-----10-------------10-----10-----10-----10-----------|
G|-9------9------9--------------9------9------9------9--------------|
D|------------------------------------------------------------------|
A|------------------------------------------------------------------|
E|------------------------------------------------------------------|


respuesta para ti
e|---------------|
B|---------------|
G|---------------|
D|---------------|
A|---------------|
E|---------------|

A
Márcame la piel,
               Bm
insiste si me quieres convencer
                  C#m
que no todo es perfecto
    D
que si te equivocaste,
      Bm                    E7
ya no sabes si morir en el intento.


            A
Siempre es así
                   F#m  F#7
no es cuestión de amor
            Bm
siempre es así
             E7
juega en mi sudor,
        D             A
mi corazón puede aguantarte
                        Bm
y me convences cuando quieras
         D             E7
que te piense no me mientas
                 A
solo márcame la piel

solo
e|-9-9--7-9-7-5--5-9--7-9-7-5--5-9--7-9-7-5--2-5-9-7------|
B|--------------------------------------------------------|
G|--------------------------------------------------------|
D|--------------------------------------------------------|
A|--------------------------------------------------------|
E|--------------------------------------------------------|

A
Márcame la piel,
               Bm
insiste si me quieres convencer
                  C#m
que no todo es perfecto
    D
que si te equivocaste,
      Bm                    E7
ya no sabes si morir en el intentooooo no uh no.

            A
Siempre es asi
                   F#m F#7
no es cuestión de amor
            Bm
siempre es asi
             E7
juega en mi sudor,
        D             A
mi corazón puede aguantarte
                        Bm
y me convences cuando quieras
         D             E7
que te piense no me mientas
                 A
solo márcame la piel

                   F#m
que abriga con mi sangre,
               D
el frío de tu aire
                 E7    F#7
lo tibio de una sensación


            B
Siempre es así
                  G#m-G#7
no es cuestión de amor
            C#m
siempre es así
             F#7
juega en mi sudor,
        E             B
mi corazón puede aguantarte
                      C#m
y me convences cuando quieras
        E            F#7
que te piense no me mientas
        C#m
cuando quieras
        E             F#7
que te piense no me mientas

solo marcameeeeee......


               .........LA piel
e|-------9-------9-------9--14----------9-------9-------9-------9----|
B|----12------12------12-------------12------12------12------12------|
G|-11------11------11-------------11------11------11------11---------|
D|-------------------------------------------------------------------|
A|-------------------------------------------------------------------|
E|-------------------------------------------------------------------|

e|-------9-------9-------9--14--------|
B|----12------12------12--------------|
G|-11------11------11-----------------|
D|------------------------------------|
A|------------------------------------|
E|------------------------------------|
Suggest correction
Creating personal tab
Creating personal tab
You can edit any tab online and save it as your Personal.

You can edit, replace or remove any tab part or add personal notes – all changes will be seen only by you.

Personal tabs can be accessed anytime from any device, even offline.
Learn more »
Give kudos to tab author, rate the tab!
1 2 3 4 5
comments
print report bad tab
guest
Wanna post a correction for this tab? Suggest correction