Oops, an error
Loading. Please wait.

No Te Apartes De Mi tab

118 views 9 this week
no commentswrite comment
1 2 3 4 5
3 more votes to show rating
add to favorites
×
Save as Personal and add changes to this tab that will be seen only by you. Learn more ›
×
You can save this tab as Personal to edit and correct it or add notes. All changes will be seen only by you. Learn more »
launch autoscroll
font size
0
reset
how to read this tab
guitar tuner
edit
Autoscroll
slow
fast
+/-
esc
set tempo
stop
que pex banda ahi les paso sta rola qw no m late tanto
pero esta completa con todo y solos y el intro sta 100%
correcta la transcripcion, usen distorcionador para que
se scuche =  la version del disco, los acordes stan
completos y bien puestos, se toca con dos guitarras
pero aki las acomode en una sola
ahora que si kieren las partituras de las dos guitarras
hechenme un grito y se las mando

ed_che19@  
o kar_itz@


E---------------------------------------------------
A---------------------------------------------------
D---------------------------------------------------
G------------------9-11-----------------------------
B-10/12-12-10-8-10------8-10-11/12---------12-8-10--
e----------------------------------9h10-10----------


E---------------
A---------------
D---------------
G-8h9-7---------
B-------6-8-----
e---------------


     G                  B   B7
E-3---------3----------------------------------------
A----------------------2--------2--------------------
D---0---0-----0---0-----4---4----4---4---------------
G----0---0-----0---0-----4---2----4---2--------------
B-----3---------3---------4--------4-----------------
e----------------------------------------------------

yo pense que podia alejarme de ti y no puedo

    Em/Em7                               Dm     G7
es dificil  mi maor  mas dificil de lo que pense

    C                    D                G        Em
he dejado mi puerta entreabierta y entraste tu sin avisar

   C                  D/D9
no t apartes de mi o no


     C                                      B/B7
yo pense que con tanta experiencia conocia todo

     Em/Em7
y contigo aprendi que al amor no le importa quien


     Dm G7             C                   D     G
sabe mas y que el tiempo en nosotros no existe por todo

               Em         Am           D     G/G7
lo que veo en ti,  no t apartes de mi o no


coro:


    C                D
todo amor que yo espere de la vida

          G              Em7
lo he encontrado solo en ti

      Am       D            G/G7
y resulta que tu no estas aqui.

       C           D
esos aires de que no sabes nada

      G                Em7
me han sabido hacer feliz

     Am           D        G
no t apartes de mi o no o no


puente: Am   D/D9  X2

SOLO:

E---------------------------------------------------
A---------------------------------------------------
D---------------------------------------------------
G------------------9-11-----------------------------
B-10/12-12-10-8-10------8-10-11/12---------12-8-10--
e----------------------------------9h10-10----------


E---------------------------------------------------
A---------------------------------------------------
D---------------------------------------------------
G-9---9---9------------------9----------------------
B---8---8---10/12-12-10-8-10---8-10-12--------------
e--------------------------------------10-12-14-15--


   G                                           B/B7
yo pense que ese aire inocente me enseñase un mundo

         Em/Em7                                 Dm/G7
en las cosas bonitas tan simples que simepre me diste

         C                 D
por la falta que m haces aqui

          G               Em
y por todo lo que veo en ti,

        Am        D   G
no t apartes de mi o no


ono


coro=


todo lo que yo..................
Suggest correction
Creating personal tab
Creating personal tab
You can edit any tab online and save it as your Personal.

You can edit, replace or remove any tab part or add personal notes – all changes will be seen only by you.

Personal tabs can be accessed anytime from any device, even offline.
Learn more »
Give kudos to tab author, rate the tab!
1 2 3 4 5
comments
print report bad tab
guest
Wanna post a correction for this tab? Suggest correction