Oops, an error
Loading. Please wait.

Claudia Solía Quererme tab

374 views 1 this week
no commentswrite comment
1 2 3 4 5
2 more votes to show rating
add to favorites
×
Save as Personal and add changes to this tab that will be seen only by you. Learn more ›
×
You can save this tab as Personal to edit and correct it or add notes. All changes will be seen only by you. Learn more »
launch autoscroll
font size
0
reset
how to read this tab
guitar tuner
edit
Autoscroll
slow
fast
+/-
esc
set tempo
stop
Esta versión es para guitarra acústica en afinación estándar.
Para cualquier aclaración pregúntenme en el correo: Cibernerd53@
Acordes: F, G, C, Am

F                   G
Hola, Claudia. Dime ¿Cómo estás?
C                 Am
El tiempo pasa y volvemos a hablar.
F                   G
Si te contara de mi soledad
C            Am
Soló lástima llegaría a dar.
F            G
OHH          OHH
C            Am
OHH          OHH
F             G
Hey, Claudia, todo alrededor cambia.
C          Am
La cerveza no me sabe igual.
F                    G
Me cuesta mucho reír o cantar.
C                  Am
Voy arrastrando mi inseguridad.

F            G
OHH          OHH
C            Am
OHH          OHH
F
Si me dices que me amas
G
¿Por qué me haces tanto daño?
C
¿Qué no ves que estoy *dispuesto
Am
a darte todos mis años?
F
Y si ves que soy muy duro;
G
no es que quiera, te lo juro.
C
Es que te dí amor puro
Am
y lo arrojaste contra el muro.

F                G
Mi mundo sólo es oscuridad
C              Am
y para ti todo empieza a brillar.
F                   G
La luz que irradias no la apagarán.
C                   Am
Tú sigues siendo mi estrella fugaz.
F            G
OHH          OHH
C            Am
OHH          OHH

F                G
Muchos otros más te buscarán
C                 Am
pero como conmigo no serás.
F                 G
Y sé muy bien que recordarás
C                Am
tus dedos flacos sintiendo el compás.
F            G
OHH          OHH
C            Am
OHH          OHH


F
Si me dices que me amas
G
¿Por qué me haces tanto daño?
C
¿Qué no ves que estoy *dispuesto
Am
a darte todos mis años?
F
Y si ves que soy muy duro;
G
no es que quiera, te lo juro.
C
Es que te dí amor puro
Am
y lo arrojaste contra el muro.
SOLO: F, G, C, Am
E|-15b-15b-15b-15b-15-12-15-12/-------------------------|
B|-----------------------------13-13b-13-12h13p12-------|
G|------------------------------------------------12b-12|
D|------------------------------------------------------|
A|------------------------------------------------------|
E|------------------------------------------------------|

E|---------------------------|----------------------------|
B|-------------------------3b|-/15-13---------------------|
G|-------------------2-5-2---|--------14-12---------------|
D|---------2-3-5-2-5---------|--------------14-12---------|
A|---2-3-4-------------------|--------------------15-12---|
E|-5-------------------------|----------------------------|

E|--------------------------------------------------------|
B|--------------------------------------------------------
G|--------------------------------------------------------|
D|--------------------------------------------------------|
A|-15p12p10h12p10p7h10p7p5b3------------------------------|
E|--------------------------7b----------------------------|


                   OH OH...                     OH OH...
E|--------------------------------------------------------------------|
B|--------------------------------------------------------------------|
G|--------------------------------------------------------------------|
D|--------------------------------------------------------------------|
A|-----------------------------------3-3-3-3-3-3-3-3--0-0-0-0-0-0-0-0-|
E|-1-1-1-1-1-1-1-1---3-3-3-3-3-3-3-3----------------------------------|
                   OH OH...            OH OH...
E|--------------------------------------------------------------------|
B|--------------------------------------------------------------------|
G|--------------------------------------------------------------------|
D|--------------------------------------------------------------------|
A|--------------------------------------------------------------------|
E|-1-1-1-1-1-1-1-1---3-3-3-3-3-3-3-3--2-2-2-2-2-----------------------|


F
Si me dices que me amas
G
¿Por qué me haces tanto daño?
C
¿Qué no ves que estoy *dispuesto
Am
a darte todos mis años?
F
Y si ves que soy muy duro;
G
no es que quiera, te lo juro.
C
Es que te dí amor puro
Am
y lo arrojaste contra el muro.
(La siguiente parte se toca al mismo tiempo)

No contestas mis llamadas. Dime ¿Qué quieres que haga?
Si intentar solucionarlo o simplemente olvidarlo.

E|-12-10--------------------------------------------------------------|
B|-------13-----------------------------------------------------------|
G|----------12-10-9-9-------9-----------------------------------------|
D|--------------------12-10---12-10-----------------------------------|
A|--------------------------------------------------------------------|
E|--------------------------------------------------------------------|

Te dí lo que me pedías sin saber cuanto me herías.
Ahora tú te das la vuelta. Mira que gran ironía.

E|-12-10--------------------------------------------------------------|
B|-------13-----------------------------------------------------------|
G|----------12-10-9-9-------9-10-12-----------------------------------|
D|--------------------12-10-------------------------------------------|
A|--------------------------------------------------------------------|
E|--------------------------------------------------------------------|

*Hay un pequeño arreglo OPCIONAL cuando dice ?Estoy dispuesto?
B|--5h6p5------|
G|--------6b---|

            
            
Suggest correction
Creating personal tab
Creating personal tab
You can edit any tab online and save it as your Personal.

You can edit, replace or remove any tab part or add personal notes – all changes will be seen only by you.

Personal tabs can be accessed anytime from any device, even offline.
Learn more »
Give kudos to tab author, rate the tab!
1 2 3 4 5
comments
print report bad tab
guest
Wanna post a correction for this tab? Suggest correction