Oops, an error
Loading. Please wait.

Solo Me Quedas Tú chords

8 views 1 this week
no commentswrite comment
1 2 3 4 5
3 more votes to show rating
add to favorites
×
Save as Personal and add changes to this tab that will be seen only by you. Learn more ›
×
You can save this tab as Personal to edit and correct it or add notes. All changes will be seen only by you. Learn more »
launch autoscroll
font size
0
reset
transpose
0
reset
display chords
guitar tuner
edit
Autoscroll
slow
fast
+/-
esc
set tempo
stop
Strumming
There is no strumming pattern for this song yet. and get +5 IQ
Hola de nuevo!! Esta canción se la dedico a alguien muy especial para mí...
Ella ya lo sabe. Aquí os dejo con un temazo del ex de Third Degree, por
aquél entonces conocido como Yuri de Lee, el mejor compositor leonés!
Como siempre, correcciones o sugerencias a manu15paramo@


  Solo *

--\
 E |-----8---8-8--|-----6---6-6--|-----4---4-4--|
 B |--4----4------|--4----4------|--4----4------|
 G |--------------|--------------|--------------|
 D |--------------|--------------|--------------|
 A |--------------|--------------|--------------|
 E |--------------|--------------|--------------|
--/


|-----4--4-3-1-----4----4-4---|
|--4-----------4-2----4-------|
|-----------------------------|
|-----------------------------|
|-----------------------------|
|-----------------------------|


|-----8---8-8--|-----6---6-6--|-----6---6-6--|
|--4----4------|--4----4------|--4----4------|
|--------------|--------------|--------------|
|--------------|--------------|--------------|
|--------------|--------------|--------------|
|--------------|--------------|--------------|

* Repetir 2 veces


Am                 Em
Se puede matar solo con palabras

Dm                      Em
Palabras que vuelan y te parten la espalda

Am        G Dm         Em
Se puede matar con un solo beso

Dm             Em
Con buena cara, cómo no, a destiempo


Am           G    Am         G
Ahora solo me quedas tú, solo me quedas tú


G                     Am   G       Am
Y si al doblar una esquina te vas de mi vida

Em
¿Dónde irás?

      Dm     Am    Em
Ahora solo me quedas tú


+++++++++++++++++++++++++++++++++++++++++++++++
+++ A partir de aquí son los mismos acordes +++
+++++++++++++++++++++++++++++++++++++++++++++++


Peor que matar es cerrar los ojos
Mover el cuchillo si se clava en otro
Peor que matar es no dar la cara
Dejar que escampe y volver a la cama


Ahora solo me quedas tú, solo me quedas tú


Y si no voy con cuidado, si doy otro paso en falso
No lo verás
Ahora solo me quedas tú


Hay que verlo para creerlo
Se han vuelto locos, todos locos, no


Ahora solo me quedas tú, solo me quedas tú
Solo me quedas tú

      * Solo

Y si al doblar una esquina te vas de mi vida
¿Dónde irás?
Ahora solo me quedas, solo me quedas, solo me quedas tú
Suggest correction
Creating personal tab
Creating personal tab
You can edit any tab online and save it as your Personal.

You can edit, replace or remove any tab part or add personal notes – all changes will be seen only by you.

Personal tabs can be accessed anytime from any device, even offline.
Learn more »
Give kudos to tab author, rate the tab!
1 2 3 4 5
comments
print report bad tab
guest
Wanna post a correction for this tab? Suggest correction