Oops, an error
Loading. Please wait.

Todo El Mundo Es Bueno tab

10 views 1 this week
no commentswrite comment
1 2 3 4 5
3 more votes to show rating
add to favorites
×
Save as Personal and add changes to this tab that will be seen only by you. Learn more ›
×
You can save this tab as Personal to edit and correct it or add notes. All changes will be seen only by you. Learn more »
launch autoscroll
font size
0
reset
how to read this tab
guitar tuner
edit
Autoscroll
slow
fast
+/-
esc
set tempo
stop
El tema que da nombre al disco, yo solo he sacado el solo, que se
repite durante los dos primeros versos. En el estribillo se toca
otro solo con guitarra eléctrica que yo no he sacado por no tener
eléctrica :-b Bueno, aún quedan más canciones de Yuri, que iré
sacando poco a poco, así que mientras tanto, dudas y correcciones
a: manu15paramo@

--
 E |---------------------------|---------------------------|
 B |---------2-----------2-----|---------2-----------2-----|
 G |------3-----3-----3-----3--|------3-----3-----3-----3--|
 D |---4-----------4-----------|---4-----------4-----------|
 A |---------------------------|---------------------------|
 E |---------------------------|---------------------------|
--/


|---------------------------|------------------------|------------|
|---------2-----------2-----|---------2-----------2--|---------2--|
|------4-----4-----4-----4--|------4-----4-----4-----|------3-----|
|---4-----------4-----------|---4-----------4--------|--4---------|
|---------------------------|------------------------|------------|
|---------------------------|------------------------|------------|


|------------------------|------------|
|---------2-----------2--|---------2--|
|------4-----4-----4-----|------3-----|
|---4-----------4--------|--4---------|
|------------------------|------------|
|------------------------|------------|


Mira cómo fingen que se sienten indignados
Y la única verdad es que les trae sin cuidado quien sufra
O quien se muera

Más tarde o más temprano acaban por tender la mano
Al malo que ahora es amo, al amo con dinero que sabe
Que todo tiene su precio

Y se sienten orgullosos cuando alguien les sorprende
Contando sus monedas porque son gente decente que siempre
Piensan con el lado derecho

Y todo el mundo es bueno
Oh, no
Todo el mundo es bueno

También los hay modernos, gente sana sin prejuicios
Que toleran a un gay mientras no sea su hijo, entonces
¿Qué hemos hecho mal con el niño?

Para otros todo vale siempre y cuando les divierta
Y prefieren no llamar si la puerta está abierta, no entienden
De distancias ni de barreras

Y se sienten orgullosos cuando alguien les sorprende
Contando sus monedas porque son gente decente que siempre
Piensan con el lado derecho

Y todo el mundo es bueno
Oh, no
Todo el mundo es bueno

Ahora mira cómo fingen que se sienten indignados
Y la única verdad es que les trae sin cuidado quien sufra
O quien se muera

Más tarde o más temprano acaban por tender la mano
Al malo que ahora es amo, al amo con dinero que sabe
Que todo tiene su precio

Y se sienten orgullosos cuando alguien les sorprende
Contando sus monedas porque son gente decente que siempre
Piensan con el lado derecho

Y todo el mundo es bueno
Oh, no
Todo el mundo es bueno

            
            
Suggest correction
Creating personal tab
Creating personal tab
You can edit any tab online and save it as your Personal.

You can edit, replace or remove any tab part or add personal notes – all changes will be seen only by you.

Personal tabs can be accessed anytime from any device, even offline.
Learn more »
Give kudos to tab author, rate the tab!
1 2 3 4 5
comments
print report bad tab
guest
Wanna post a correction for this tab? Suggest correction