Oops, an error
Loading. Please wait.

Ya Te Olvidé tab

by Yuridia
480 views 1 this week
no commentswrite comment
1 2 3 4 5
3 more votes to show rating
add to favorites
×
Save as Personal and add changes to this tab that will be seen only by you. Learn more ›
×
You can save this tab as Personal to edit and correct it or add notes. All changes will be seen only by you. Learn more »
launch autoscroll
font size
0
reset
how to read this tab
guitar tuner
edit
Autoscroll
slow
fast
+/-
esc
set tempo
stop
Desde: Monterrey Nuevo Leon, Mexico
isef_hunter@

INTRO
  Dm              A#    C
E------------------------------------
B-------6-5--6--------3-------5------
G--7----------------3-------5--------  2 veces
D-----------------3-----3-5----------
A------------------------------------
E------------------------------------


           Dm  A# C               Dm            A# C
Ya te olvidé,       vuelvo a ser libre otra vez
            Dm                         Am
vuelvo a volar hacia mi vida que está lejos
                  A#  C
y prohibida para ti


Mientras esta el verso que sigue va esto
punteado de fondo

E------------------------------------
B------------------------------------
G------------------------------------  3 veces
D--77777777-5------------------------
A------------------------------------
E------------------------------------

E------------------------------------
B------------------------------------
G--55-5------------------------------  3 veces
D----7--777--------------------------
A------------------------------------
E------------------------------------

E------------------------------------
B------------------------------------
G------------------------------------  3 veces
D--77777777-5------------------------
A------------------------------------
E------------------------------------

E------------------------------------
B------------------------------------
G--55-5------------------------------  3 veces
D----7--777--------------------------
A------------------------------------
E------------------------------------


           Dm  A# C               Dm          A# C
Ya te olvidé,       ya estás muy lejos de mi
          Dm                      Am
tu lo lograste con herirme, lastimarme
                    A#     C
y convertirme en no sé qué

        F                           C
Me atrapaste, me tuviste entre tus manos
        C -C#dim  -  Dm            A#             C
me enseñaste lo inhumano y lo infeliz que puedes ser
       A#          A          Dm   C
te fingiste exactamente enamorado
        A#            Gm         C
aunque nunca me has amado yo lo se

      F                          C
me dijiste que jamás podría olvidarte
         C   -C#dim - Dm          A#    C
que después iría a rogarte y a pedirte bésame
       A#            A            Dm          C
yo luche contra el amor que te tenía y se fue
    A#  C            F   Dm A# C
y ahora,  ya te olvide.

E------------------------------------
B------------------------------------
G--10-9--10--------------------------
D-----------10-12--10----------------
A------------------------------------
E------------------------------------


(Aqui se repite el punteado de alla arriba)

           Dm  A# C               Dm          A# C
Ya te olvidé,       ya estás muy lejos de mi
          Dm                      Am
tu lo lograste con herirme, lastimarme
                    A#     C
y convertirme en no sé qué

        F                           C
Me atrapaste, me tuviste entre tus manos
        C -C#dim  -  Dm            A#             C
me enseñaste lo inhumano y lo infeliz que puedes ser
       A#          A          Dm   C
te fingiste exactamente enamorado
        A#            Gm         C
aunque nunca me has amado yo lo se

      F                          C
me dijiste que jamás podría olvidarte
         C   -C#dim - Dm          A#    C
que después iría a rogarte y a pedirte bésame
       A#            A            Dm          C
yo luche contra el amor que te tenía y se fue
    A#  C            F   Dm A# C
y ahora,  ya te olvide.


SOLO

           F                          C
E----------------------------8--6--------------------
B-------8--10--10--10-10-10--------10-10--8----------
G--/10-----------------------------------------------
D----------------------------------------------------
A----------------------------------------------------
E----------------------------------------------------

        C#dim         Dm
E---------8--6-----------------------
B--8--10--------10--8-8-10-----------
G---------------------------10-------
D------------------------------------
A------------------------------------
E------------------------------------

          A#     C
E--6---------------------------------
B-----10--8------8-------------------
G------------10----------------------
D------------------------------------
A------------------------------------
E------------------------------------

       A#          A          Dm   C
te fingiste exactamente enamorado
        A#            Gm         C
aunque nunca me has amado yo lo se

      F                          C
me dijiste que jamás podría olvidarte
         C   -C#dim - Dm          A#    C
que después iría a rogarte y a pedirte bésame
       A#            A            Dm          C
yo luche contra el amor que te tenía y se fue
    A#  C            Dm   C
y ahora,  ya te olvide.
    A#  C            F
y ahora,  ya te olvide.

            
            
Suggest correction
Creating personal tab
Creating personal tab
You can edit any tab online and save it as your Personal.

You can edit, replace or remove any tab part or add personal notes – all changes will be seen only by you.

Personal tabs can be accessed anytime from any device, even offline.
Learn more »
Give kudos to tab author, rate the tab!
1 2 3 4 5
comments
print report bad tab
guest
Wanna post a correction for this tab? Suggest correction