Oops, an error
Loading. Please wait.

Leñador Y La Mujer América tab

by Zahara
385 views 1 this week
no commentswrite comment
1 2 3 4 5
3 more votes to show rating
add to favorites
×
Save as Personal and add changes to this tab that will be seen only by you. Learn more ›
×
You can save this tab as Personal to edit and correct it or add notes. All changes will be seen only by you. Learn more »
launch autoscroll
font size
0
reset
how to read this tab
guitar tuner
edit
Autoscroll
slow
fast
+/-
esc
set tempo
stop
Sacada de una versión acústica tocada por ella misma:


Algunos acordes no estoy seguro de si los toca así o en otras posiciones.
Como algunos no los hace de manera "estándar" los he puesto tal como
los veía en el vídeo. La segunda parte de la canción sigue la misma
estructura de la primera. La tablatura es sólo de guía para los acordes,
para patrón de rasgueo y ritmo mirad el vídeo. Con un poco de práctica
es más fácil de lo que en un principio parece.

Dejo la letra completa también al final para que no se mezcle mucho con
LA tablatura.


INTRO:
Para la intro rasguea mudo contra el traste 12.

   E                       B         E                E6       E
e|-0--------------|----------------|-0--------------|-0--------0-------|
B|-0--------------|----------------|-0--------------|-0--------0-------|
G|-1--------------|--------8-------|-1--------------|-1--------1-------|
D|-2--------------|--------9-------|-2--------------|-2--------2-------|
A|-2--------------|--------9-------|-2--------------|-4--------2-------|
E|-0--------------|----------------|-0--------------|----------4-------|
   No quiero cambiar las   leyes naturales
E                    B           E     E6  E
pero venceré en este juego de animales.

   G#m              F#m              E
e|-4--------------|-2--------------|-0--------------|----------------|
B|-4--------------|-2--------------|-0--------------|----------------|
G|-4--------------|-2--------------|-1--------------|----------------|
D|-6--------------|-4--------------|-2--------------|----------------|
A|-6--------------|-4--------------|-2--------------|----------------|
E|-4--------------|-2--------------|-0--------------|----------------|
   Resisti         ré en el          canto de las bestias
G#m      F#m       E
y a cada paso creceremos venenosos.
G#m      F#m         E
Tanta brutalidad no acabará con nosotros ..

   C#m
e|-4--------------|---------------|---------------|
B|-5--------------|---------------|---------------|
G|-6--------------|---------------|---------------|
D|-6--------------|---------------|---------------|
A|----------------|---------------|---------------|
E|----------------|---------------|---------------|
   C#m
   Ya no somos criaturas de este...

   C#m     ???       C#m     C#m (x3)
e|-4-------0-------|-0-------4-------|
B|-5-------5-------|-5-------5-------|
G|-6-------6-------|-6-------6-------|
D|-6-------4-------|-6-------6-------|
A|-4-------5-------|-----------------|
E|-----------------|-----------------|
...mundo

   C#m     ???       C#m     C#m
e|-4-------0-------|-0-------0-------|
B|-5-------5-------|-5-------5-------|
G|-6-------6-------|-6-------6-------|
D|-6-------4-------|-6-------6-------|
A|-4-------5-------|-----------------|
E|-----------------|-----------------|

E                  B           E      E6  E
Sube la tensión, aullamos como fieras ..
E                  B              E    E6  E
no quemar el sol será nuestra grandeza.

G#m       F#m          E
La pareja tóxica que dominará el planeta ..
G#m            F#m           E
desnudos en la tierra conquistando la belleza,
     G#m        F#m            E
derribando la penumbra con nuestras puertas abiertas ..
C#m                 C#m     ???       C#m     C#m  (como arriba)
Leñador y la Mujer América...
 C#m     ???       C#m     C#m
América...
 C#m     ???       C#m     C#m
América...
 C#m     ???       C#m     C#m
América...


Letra:
======

No quiero cambiar las leyes naturales
pero venceré en este juego de animales.

Resistiré en el canto de las bestias
y a cada paso creceremos venenosos.
Tanta brutalidad no acabará con nosotros
Ya no somos criaturas de este mundo.

Sube la tensión, aullamos como fieras
no quemar el sol será nuestra grandeza.

La pareja tóxica que dominará el planeta
desnudos en la tierra conquistando la belleza,
derribando la penumbra con nuestras puertas abiertas
Leñador y la Mujer América - América - América - América
Suggest correction
Creating personal tab
Creating personal tab
You can edit any tab online and save it as your Personal.

You can edit, replace or remove any tab part or add personal notes – all changes will be seen only by you.

Personal tabs can be accessed anytime from any device, even offline.
Learn more »
Give kudos to tab author, rate the tab!
1 2 3 4 5
comments
print report bad tab
guest
Wanna post a correction for this tab? Suggest correction