Oops, an error
Loading. Please wait.

Mi Perdición tab

version 1
version 1

Whole song

by Zen
167 views 3 this week
no commentswrite comment
1 2 3 4 5
3 more votes to show rating
add to favorites
×
Save as Personal and add changes to this tab that will be seen only by you. Learn more ›
×
You can save this tab as Personal to edit and correct it or add notes. All changes will be seen only by you. Learn more »
launch autoscroll
font size
0
reset
how to read this tab
guitar tuner
edit
Autoscroll
slow
fast
+/-
esc
set tempo
stop
Se la dedico a una chika muy especial para mi.. pero q ya no
esta a mi lado... (la extraño mucho)..B......


1|--10----10--------------------------------|
2|--10h12-10-10---8------8-------8----------|
3|-----------9h11-9------7h9p7---7h9-7---7--|
4|-----------------------------9-------9----|
5|------------------------------------------|
6|------------------------------------------|

1|-------------------------------------------------5--|
2|------------10-------8-----------8---------------7--|
3|------------9h11-9---7h9-7-------7h9p7---------7-7--|
4|-----7---------------------------------9---5-7------|
5|--5h7-----------------------------------------------|
6|----------------------------------------------------|

RE SIm LA4 LA FA#m SOL RE LA

Apareces    como una ilusion
  RE SIm LA4 LA          FA#m SOL RE LA
Tu mi vida       mi perdicion
     RE SIm LA4 LA        FA#m SOL RE LA
Yo te sueño siempre asi
       MI4           MI
Aunque no quieras saber
      FA#m   SOL    LA

Oh llevame dentro de ti
    RE        LA4    LA
Quiero sentirte una vez mas
   SOL              LA
Oh llevame dentro de ti
    RE        LA4    LA
Quiero tenerte una vez mas
   SOL             LA  RE

Apareces      tan llena de luz
  RE SIm LA4 LA            FA#m SOL RE LA
Cuando mi alma      se esconde del sol
         RE SIm LA4 LA             FA#m SOL RE LA
Yo te espero siempre aqui
        MI4           MI
Aunque no me quieras ver
      FA#m    SOL    LA

Oh llevame dentro de ti
    RE        LA4    LA
Quiero sentirte una vez mas
   SOL              LA
Oh llevame dentro de ti
    RE        LA4    LA
Quiero tenerte una vez mas
   SOL             LA  RE

Y si alguna vez falle
       FA#m       SOL
Solo espero tu perdon
        LA

RE LA4 LA SOL LA  RE LA4 LA SOL LA

1|--5/10-10~~~---10/15-15~14~-14/10-10~~---|
2|-----------------------------------------|
3|-----------------------------------------|
4|-----------------------------------------|
5|-----------------------------------------|
6|-----------------------------------------|

1|--10-10/9-9/7-7/5-5/10-10~~~---10/15-15~14~/17~~/22~~/5-|
2|--------------------------------------------------------|
3|--------------------------------------------------------|
4|--------------------------------------------------------|
5|--------------------------------------------------------|
6|--------------------------------------------------------|

Oh llevame dentro de ti
    RE        LA4    LA
Quiero sentirte una vez mas
   SOL              LA
Oh llevame dentro de ti
    RE        LA4    LA
Quiero tenerte una vez mas
   SOL             LA

1|-------------------------------|
2|--2/10~~~~~~-10/3---3-3/2-2~~~~|
3|-------------------------------|
4|-------------------------------|
5|-------------------------------|
6|-------------------------------|

1|----------------------------------------------------|
2|--2/10~~--15~14~15~14~15~~~---15-15/14-15~14~15~~~~-|
3|----------------------------------------------------|
4|----------------------------------------------------|
5|----------------------------------------------------|
6|----------------------------------------------------|

            
            
Suggest correction
Creating personal tab
Creating personal tab
You can edit any tab online and save it as your Personal.

You can edit, replace or remove any tab part or add personal notes – all changes will be seen only by you.

Personal tabs can be accessed anytime from any device, even offline.
Learn more »
Give kudos to tab author, rate the tab!
1 2 3 4 5
comments
print report bad tab
guest
Wanna post a correction for this tab? Suggest correction