Oops, an error
Loading. Please wait.

Miénteme tab

by Zen
32 views 1 this week
no commentswrite comment
1 2 3 4 5
3 more votes to show rating
add to favorites
×
Save as Personal and add changes to this tab that will be seen only by you. Learn more ›
×
You can save this tab as Personal to edit and correct it or add notes. All changes will be seen only by you. Learn more »
launch autoscroll
font size
0
reset
how to read this tab
guitar tuner
edit
Autoscroll
slow
fast
+/-
esc
set tempo
stop
Hola soy luis R y este es 'mienteme' primer sencillo de su nuevo album.
Ah, porsiacaso esta es la verdadera versión de como se toca esta canción
no como otros q hablan mucho y los acordes no son ni nada se alucinan xp
sacan varias canciones (pero si se la sacan, saquensela bien ya q la
tablatura o acordes son de ZEN y no la caguen con las notas)
asi q adelante con 'mienteme'


 Intro

 E-----------------------------------------------------------------------------
 B-----------------------------------------------------------------------------
 G-----------6----4/[6]-4-------6----4/[6]-4-----6----4/[6]-4-----6----4/[6]-4--
 D--------66-6-4-6-------6---66-6-4-6------6--44-6-4-6------6--22-6-4-6-------6-
 A-(2/4)--66-4---------------66-4-------------44-4-------------22-4-------------
 E--------44-----------------44---------------22---------------00---------------
    (Repetir las veces q sea)


 Estrofa

 E---4-4-4-----------------------            -------------
 B---4-4--4----------8-8--8-----8            -[8]-[8]-[8]-!!!
 G---4-4---4-4-------7-7---7-7--7   (Repetir)-[7]-[7]-[7]-!!!
 D---6-6----6-6------6-6----6---6            -[6]-[6]-[6]-!!!
 A---6-6-------6--5--5-5--------5            -[5]-[5]-[5]-!!!
 E-4-4-4-------------------------            -------------


 Coro

  ahora ven y ...                            2da guitarra de fondo
                                                 en el coro
   MIENTEME  MIENTEME  MIENTEME otra vez
 E------------------------------              E--------------
 B------------------------------              B--------------
 G-66---444--66---444--66---4444              G-----4/[6]-4--
 D-66---444--66---444--66---4444              D--4-6-------6-
 A-44---222--44---222--44---2222              A--------------
 E------------------------------              E--------------
   (Repetir)


 Interlude


 E------------------------------
 B---[6]----[6]----[6]----------
 G-66----666----666-------------(REPETIR)
 D-66----666----666-----999-777-
 A-44----444----444-----999-777-
 E----------------------777-555-


  2DA GUITARRA EN INTERLUDE

  CON WA-WA          CON DISTORCION

 E-----------         E----------------------------------------
 B-----------         B----------------------------------------
 G--[6]--[4]-         G--6-6-6-6/4-4-4-4/11-11-11-/10-10-10----
 D---X-------         D--X-X-X-X/X-X-X-X/X-X-X-X--/X-X-X-X-----
 A--[4]--[2]-         A--4-4-4-4/2-2-2-2/9-9-9-9--/8-8-8-8-----
 E-----------         E----------------------------------------

                      E----------------------------------------
                      B----------------------------------------
                      G--6-6-6-6/4-4-4-4/11-11-11-/13-13-13-13-
                      D--X-X-X-X/X-X-X-X/X-X-X-X--/X-X-X-X-X-X-
                      A--4-4-4-4/2-2-2-2/9-9-9-9--/11-11-11-11-
                      E----------------------------------------

                       (REPETIR)


TANTO COMO ESTROFAS COMO COROS SON IGUALES
ES TODO
Suggest correction
Creating personal tab
Creating personal tab
You can edit any tab online and save it as your Personal.

You can edit, replace or remove any tab part or add personal notes – all changes will be seen only by you.

Personal tabs can be accessed anytime from any device, even offline.
Learn more »
Give kudos to tab author, rate the tab!
1 2 3 4 5
comments
print report bad tab
guest
Wanna post a correction for this tab? Suggest correction