Oops, an error
Loading. Please wait.

Quédate tab

version 1
version 1

Whole song

by Zen
473 views 3 this week
no commentswrite comment
1 2 3 4 5
3 more votes to show rating
add to favorites
×
Save as Personal and add changes to this tab that will be seen only by you. Learn more ›
×
You can save this tab as Personal to edit and correct it or add notes. All changes will be seen only by you. Learn more »
launch autoscroll
font size
0
reset
how to read this tab
guitar tuner
edit
Autoscroll
slow
fast
+/-
esc
set tempo
stop
Hola soy luis R, bueno esta canción es una de las mejores de la banda
esta es la manera mas exacta de tocar 'quédate', ahi está :


 FA#menor   SIM13   SOL#menor   LA    MI    FAM#
  E-2         E-0      E-4      E-0   E-0    E-2
  B-2         B-4      B-4      B-2   B-0    B-2
  G-2         G-4      G-4      G-2   G-1    G-3
  D-4         D-4      D-6      D-2   D-2    D-4
  A-4         A-2      A-6      A-0   A-2    A-4
  E-2         E-0      E-4      E-0   E-0    E-2


 'Quédate una noche más dejame tratar de asimilar...'
  FA#menor                                    SIM13

  E---------------------------0----------0-----
  B-------------------------4--4-4----4---4-4--
  G--2--2-2---2--2-2-------4-4--4----4-4---4---  (REPETIR)
  D----4-4------4-4----------------------------
  A--------------------------------------------
  E--------------------------------------------


 'prometo no hablar...      prometo no tocaaaaaarte...'
             FA#menor  SOL#menor          LA     SIM13

  E------0---------0---------0---------0-----
  B----0--0-0----0--0-0----0--0-0----4--4-4--
  G---2-2--2----4-4--4----2-2--2----4-4--4---
  D------------------------------------------
  A----------------------0---------2---------
  E--2---------4-----------------------------


  Coro

 'Que el tiempo dira sime voy  si no estas  nunca más...'
                 MI       SIM13      FAM#         LA 

  E-------------------------------------------------
  B-------------------------------------------------
  G-------9-11---(11)-----9---------9-11---------9--  (REPETIR)
  D------8----(8)--------8-(8)-----8----(8)---7-8---
  A-----7-------------------------9-----------------
  E---------------------7---------------------------


  SOLO


  E--7------------------------
  B---7-9---------------------
  G------9-11----9-11---9-11--   (REPETIR)
  D----------9--8----8-7------
  A---------------------------
  E---------------------------


 'Prometo no hablar...'  [2:16]

  E--------------------------------------------
  B--9-10-12----12-14-12----12-14-16----17!!!--
  G--------------------------------------------
  D--------------------------------------------
  A--------------------------------------------
  E--------------------------------------------


  '... nunca más'
             LA 


Eso es todo.

            
            
Suggest correction
Creating personal tab
Creating personal tab
You can edit any tab online and save it as your Personal.

You can edit, replace or remove any tab part or add personal notes – all changes will be seen only by you.

Personal tabs can be accessed anytime from any device, even offline.
Learn more »
Give kudos to tab author, rate the tab!
1 2 3 4 5
comments
print report bad tab
guest
Wanna post a correction for this tab? Suggest correction