Oops, an error
Loading. Please wait.

Quédate tab

version 2
version 2

Whole song

by Zen
245 views 1 this week
no commentswrite comment
1 2 3 4 5
2 more votes to show rating
add to favorites
×
Save as Personal and add changes to this tab that will be seen only by you. Learn more ›
×
You can save this tab as Personal to edit and correct it or add notes. All changes will be seen only by you. Learn more »
launch autoscroll
font size
0
reset
how to read this tab
guitar tuner
edit
Autoscroll
slow
fast
+/-
esc
set tempo
stop
***************************************************************
hola, esta es mi primera transcripcion de una de las
mejores bandas de mi pais,stos son los acordes originales(la sake
de una presentacion de zen en acustico)
tenganlo x seguro......hay les va...:-P

     Eadgbe
F#m5:x44200
  B5:X24400
G#m5:x66400
   E:022100
  A2:002200
 F#5:244300
HAY LES VA LA SEGUNDA GUITARRA DE JOVHAN:
ESTROFA 1:
F#m5
Quedate una noche mas
                     B5
dejame tratar de asimilar
F#m5
Quedate una noche mas
                     B5
dejame tratar de entender...
ESTE PUNTEO DE LA PRIMERA GUTARRA ,ACOMPAÑA LA PRIMERA ESTROFA:
          F#m5        |         B5
E|--------------------------0---------0--------
B|-----------------------4---4-4---4---4--2-4--
G|-----2--------2---------4---4-----4---------
D|---4--4-4----4--4-4--------------------------
A|--4-4--4----4-4--4----2---------2------------
E|-2---------2---------------------------------,
***se repite una vez mas***

PRECORO:
             F#m5    G#m5                 A2        B5
Prometo no hablaaaaaaar   prometo no tocaaaaaaartEE
ACOMPAÑA AL PRE CORO
     F#m5    |   G#m5   |    A2    |  B5
E|-----0----------0------------0----------0------------
B|----0-0-0-----0--0--0------0--0-0-----4--4-4---------
G|---2---2------------------2-0--2-------4--4----------
D|--4---------6--6--6------2---------------------------
A|-4---------6-----------------------2-----------------
E|-----------------------------------------------------


(CORO)
             E         B5          F#5               A2
El tiempo dira  si me voy     si no estas   nunca mas,
               E         B5          F#5              A2
LA noche hablara   SI me voy     si no estas  nunca mas.
Y ESTE ACOMPAÑA AL CORO:
      E    |  B5    |      F#5   |     A2
E----------------------------------------------
B----5-7-----4-5s7----------5------------------
G-2s4-4-------4--------4--3-- 3------3-2-------
D----------------------------------------------
A----------------------------------------------
E----------------------------------------------SE REPITE
ESTE PUNTEITO
**************
ESTROFA 2:(AL IGUAL QUE LA ESTROFA 1 ,ACOMPAÑALA CON EL PUENTO)

F#m5
Quedate una noche mas
                          B5
siento que sera la ultima vez.
F#m5
Quedate una noche mas
                           B5
aunque solo cruzen las miradas.
             F#m5     G#m5                 A2        B5
Prometo no hablaaaaaaar   prometo no tocaaaaaaarte.
(CORO)
             E          B5          F#5               A2
El tiempo dira  si me voy     si no estas     nunca mas,
               E         B5             F#5            A2
LA noche hablara   SI me voy     si no estas    nunca mas.
(solo:)
      E    |  B5    |      F#5     |   A2
E----------------------------------------------
B----5-5s7-----4-5s7---------------------------
G-2s4-4-------4------------ 9-9s11------9s11---
D-----------------------9-8---------8-7--------
A-----------------------------7s9-------7s9----
E----------------------------------------------

     E    |  B5    |      F#5     |   A2
E----------------------------------------------
B----5-5s7-----4-5s7---------------------------
G-2s4-4-------4------------ 9-9s11------9s11---
D-----------------------9-8---------8-7--------
A-----------------------------7s9-------7s9----
E----------------------------------------------
fin del solo

             F#m5    G#m5                 A2        B5
Prometo no hablaaaaaaar   prometo no tocaaaaaaarte.
ACOMPAÑA AL PRECORO FINAL

    F#m5  G#m5    A2      B5

E|-4s5s7-- 7s9-7----4s5s7---11---12-------
B|----------------------------------------
G|----------------------------------------
D|----------------------------------------
A|-6s7s9---9s11-9---6s7s9---13---14-------
E|----------------------------------------


(CORO)
             E          B5          F#5              A2
El tiempo dira  si me voy     si no estas    nunca mas,
               E          B5           F#5            A2
LA noche hablara   SI me voy     si no estas   nunca mas.
                   E      B5       F#5        A2
...la noche hablara.....oooh......oooh......oooh
               E          B5          F#5               A2
..El tiempo dira  si me voy     si no estas     nunca mas.

                                       GRACIAS...

Cualquier pregunta o lo q kieran saber de mi hay les va mi
correo electronico(marley_x6@

            
            
Suggest correction
Creating personal tab
Creating personal tab
You can edit any tab online and save it as your Personal.

You can edit, replace or remove any tab part or add personal notes – all changes will be seen only by you.

Personal tabs can be accessed anytime from any device, even offline.
Learn more »
Give kudos to tab author, rate the tab!
1 2 3 4 5
comments
print report bad tab
guest
Wanna post a correction for this tab? Suggest correction