Oops, an error
Loading. Please wait.

Bésame Mucho tab

version 2
version 2

Whole song

by Zoe
536 views 1 this week
1 commentread comment
1 2 3 4 5
3 more votes to show rating
add to favorites
×
Save as Personal and add changes to this tab that will be seen only by you. Learn more ›
×
You can save this tab as Personal to edit and correct it or add notes. All changes will be seen only by you. Learn more »
launch autoscroll
font size
0
reset
how to read this tab
guitar tuner
edit
Autoscroll
slow
fast
+/-
esc
set tempo
stop
Hey hey? aki esta la mega correcion de esta rolita?
Lleva muxos arreglos, y si ustedes se los incluyen
Se escuchara muuuuuy bien?
escuchen bien la rola? y cheken las notas


Notas arreglos para la rola?

      *Am     /
E|---|---|---|
A|---|---|---| (
D|---|-3-|---|
G|---|---|-2-|
B|---|---|-1-| (
e|---|---|---|
              
      Am7     /
E|---|---|---|
A|---|---|---| (
D|---|-3-|---|
G|---|---|---|
B|---|---|-1-| (
e|---|---|---|
              
      E7      /
E|---|---|---|
A|---|-2-|---| (
D|---|---|---|
G|---|---|-1-|
B|-3-|---|---| (
e|---|---|---|
              
      *E      /
E|---|---|---|
A|---|-2-|---| (
D|---|---|---|
G|---|---|---|
B|-3-|---|---| (
e|---|---|---|
              

       Bajeo (x4)          /
E|---0----------------0---|
A|--------------2---------| (
D|--------2--0-----0------|
G|------------------------|
B|------------------------| (
e|------------------------|
                           

armonicos (dedos rosando las cuerdas)
           /
E|--------|
A|--------| (
D|--------|   [Armónicos]
G|---12---|
B|---12---| (
e|---12---|
           
   arreglos                                                      /
E|--------------------------------------------------------------|
A|--------------------------------------------------------------| (
D|--------------------------------------------------------------|
G|--------------------------------------------------------------|
B|---0--------------0--------------1--------------1-------------| (
e|-----0-2-1-2-0------0-2-1-2-0------0-2-1-2-0------0-2-1-2-0---|
                                                                 
Em              Am
Bésame, bésame mucho
        *Am             AM7
Como si fuera esta la noche
    B7     Em
la última vez

E     E7        Am
Bésame, bésame mucho
Em        *E         C
que tengo miedo a tenerte
    B7      Em
perderte después

Bésame, bésame mucho
Como si fuera esta la noche la última vez
                       /
E|--------------------|
A|---2-1-2-3-4--------|(
D|-------------0-1-2--|
G|--------------------|
B|--------------------|(
e|--------------------|
                       
Bésame, bésame mucho
que tengo miedo a tenerte
perderte después...

Am                 Em
Quiero tenerte muy cerca
               F# / F#7
mirarme en tus ojos
              B7
verte junto a mí
Am                  Em
Piensa que tal vez mañana
             F# / F#7
yo ya estaré lejos
             B7    Em
muy lejos de aquí

Bésame, bésame mucho
Como si fuera esta la noche la última vez
                       /
E|--------------------|
A|---2-1-2-3-4--------|(
D|-------------0-1-2--|
G|--------------------|
B|--------------------|(
e|--------------------|
                       
Bésame, bésame mucho
que tengo miedo a tenerte
perderte después...

]]]solo de guitarra[[[

+ =pausa breve...

Em                   Am                        B7    Em
                                                                 /
E|--0-0-0-+-0-0-2-3----------------------------3-3--------------|
A|------------------2-0-0-+-0-0-0-2-2-2-3-3-3-3---0-2-----------| (
D|--------------------------------------------------------------|
G|--------------------------------------------------------------|
B|--------------------------------------------------------------| (
e|--------------------------------------------------------------|
                                                                 
Em                  E    E7
                       /
E|--------------------|
A|---2-1-2-3-4--------|(
D|-------------0-1-2--|
G|--------------------|
B|--------------------|(
e|--------------------|
                       
Am
                       /
E|--------------------|
A|--------------------|(
D|------------2-------|
G|----------2---------|
B|--1-0-1-0-----------|(
e|--------------------|
                       
Em       *E     C     B7    Em
                                 /
E|--0-2-3---3-0-3-2-0-2-0-+-0---|
A|--------2---------------------| (
D|------------------------------|
G|------------------------------|
B|------------------------------| (
e|------------------------------|
                                 
                       /
E|--------------------|
A|---2-1-2-3-4--------|(
D|-------------0-1-2--|
G|--------------------|
B|--------------------|(
e|--------------------|
                       
Bésame, bésame mucho
que tengo miedo a tenerte
perderte después
que tengo miedo a tenerte
perderte . . . . . . . . . . . . . .  después

///sta rolita, va dedikada a sàn ará...
ke tiene unos labios divinos?
k yo kiero besar? XP?///
Suggest correction
Creating personal tab
Creating personal tab
You can edit any tab online and save it as your Personal.

You can edit, replace or remove any tab part or add personal notes – all changes will be seen only by you.

Personal tabs can be accessed anytime from any device, even offline.
Learn more »
Give kudos to tab author, rate the tab!
1 2 3 4 5
comments
print report bad tab
1 comment total.
0 reply
李自強 10 Apr 21, 2017 09:08 PM

👍

guest
Wanna post a correction for this tab? Suggest correction