Oops, an error
Loading. Please wait.

Fantasma chords

version 2
version 2

Whole song

75 views 1 this week
no commentswrite comment
1 2 3 4 5
3 more votes to show rating
add to favorites
×
Save as Personal and add changes to this tab that will be seen only by you. Learn more ›
×
You can save this tab as Personal to edit and correct it or add notes. All changes will be seen only by you. Learn more »
launch autoscroll
font size
0
reset
transpose
0
reset
simplify chords
display chords
guitar tuner
edit
Autoscroll
slow
fast
+/-
esc
set tempo
stop
Strumming
There is no strumming pattern for this song yet. and get +5 IQ
Fantasma

Intro: B9 D G D E*

e|----------------------------------------------|
B|------2---------3-2-0-----0----0--------------|
G|----4---4-----4-------0-----------------------|
D|------------0---------------4----2-----0/2----|
A|--2----------------------------------------2--|
E|----------------------------------------------|

B9                            D
Dame una señal, aunque me de miedo
       G                D             E*
No sé nada de ti, y me siento muy mal
B9                              D
Sé que donde estas puede ser difícil
    G                F#m
O prácticamente imposible

Coro:
C                   Am     F                          Am
Fantasma de mi corazón, humilde, tierno, justo y soñador
C                      Am     F                  Am
Gracias por todos esos años, nunca te voy a olvidar

    B9            G             C            Em
    Huuuuuuuu     Haaaaa        Huuuuuuu     Ha
    B9            G             C            Em
    Huuuuuuuu     Haaaaa        Huuuuuuu     Ha

e|-----------------------------------------------------|
B|----2------2------3------3------5-----5------5-------|
G|------4------4------4------4------5-----5------4-----|
D|--4------4------5------5------5------5-----5------5--|
A|-----------------------------------------------------|
E|-----------------------------------------------------|

B9                              D
No hace falta ni ver una fotografía
     G                    D            E*
Te llevo en la sangre, vives en mí ser
B9                                   D
Tu espíritu está en las dunas del desierto
         G                    F#m
Bajo un cielo inmortal, te decimos adiós

Coro:
C                   Am     F                          Am
Fantasma de mi corazón, humilde, tierno, justo y soñador
C                      Am     F                    Am
Gracias por todos esos años, nunca te vamos a olvidar

    B9            G             C
    Huuuuuuuu     Haaaaa        Huuuuuuu

G5 Em5 G5 Em5 F#m5 Em5 F#m5 Em5

   G5    Em5  G5            Em5  F#m5       Em5  F#m5            Em5
Me siento, me siento muy mal, en donde estás, en donde estás Papá  x2

G5 Em5 G5 Em5 F#m5 Em5 F#m5 Em5
B9 G C Em x2
B9

Acordes
     B9
e|---2-----|
B|---2-----|
G|---4-----|
D|---4-----|
A|---2-----|
E|---2-----|

Este mi lo deslizan de re
     E*
e|---4-----|
B|---5-----|
G|---4-----|
D|---x-----|
A|---x-----|
E|---x-----|

esta transcripcion se escucha mejor saludos a los canabis

            
            
Suggest correction
Creating personal tab
Creating personal tab
You can edit any tab online and save it as your Personal.

You can edit, replace or remove any tab part or add personal notes – all changes will be seen only by you.

Personal tabs can be accessed anytime from any device, even offline.
Learn more »
Give kudos to tab author, rate the tab!
1 2 3 4 5
comments
print report bad tab
guest
Wanna post a correction for this tab? Suggest correction