Oops, an error
Loading. Please wait.

Tarántula tab

by Zoe
82 views 1 this week
no commentswrite comment
1 2 3 4 5
2 more votes to show rating
add to favorites
×
Save as Personal and add changes to this tab that will be seen only by you. Learn more ›
×
You can save this tab as Personal to edit and correct it or add notes. All changes will be seen only by you. Learn more »
launch autoscroll
font size
0
reset
how to read this tab
guitar tuner
edit
Autoscroll
slow
fast
+/-
esc
set tempo
stop
esta rola enigmatica es la obra maestra en cuanto a
poesia y letras...

riff intro:
6--------------------------------------
5--------------------------------------
4--------------------------------------
3--------9-8-9-------9-8-9-------------
2--8-9-8-------8-9-8-------------------
1--------------------------------------

riff intro,E,Em/Eb

E                    Em/Eb
tránsito reumatico,tarantula voraz

E                    Em/Eb
suspéndenos entre tus sueños de pez.

E                           Em/Eb
rascas la madera hasta brotarte la humedad

E                   Em/Eb
parasitándote la piel...

E
y en cuanto tu respires romperemos el cristal

Em/Eb
tarantulas en coma con la tierra...

E
y en cuanto tu respires cruzaremos el umbral,

Em/Eb
tarantulas en coma con la tierra...

E                   Em/Eb
transito reumatico,tarantula voraz

E                    Em/Eb
sumergenos,entre tus redes de sal,

E                        Em/Eb
rascas la madera hasta brotarte la humedad

E                Em/Eb
parasitándote la piel...

E
y en cuanto tu respires romperemos el cristal

Em/Eb
tarantulas en coma con la tierra...

E
y en cuanto tu respires cruzaremos el umbral,

Em/Eb
tarantulas en coma con la tierra...

E                      Em/Eb
tarantula,tarantula,tarantula.


6--------------------------------------
5----2---------------------------------
4----2---------------------------------
3--1-----------------------------------
2--------------------------------------
1--------------------------------------
         (E)

6-------------------------------------
5---1---------------------------------
4---1---------------------------------
3-------------------------------------
2-------------------------------------(OJO ESTAS 3 CUERDAS
1------------------------------------- NO SE TOCAN)
        (Em/Eb)


6-------------------------------------
5-------------------------------------
4-------------------------------------  riff 2
3-------------------------------------
2---9-11-8-9--------------------------
1-------------------------------------


6-------------------------------------
5-------------------------------------
4-------------------------------------  riff 3
3-------------------------------------
2-----11-12-14-14---------------------
1-----------------17------------------


bien espero tomen en cuenta que deben escuchar la
rola y sabran donde entran los riffs o.k???
peace and love kurtis...t.a.k.d.m.g

            
            
Suggest correction
Creating personal tab
Creating personal tab
You can edit any tab online and save it as your Personal.

You can edit, replace or remove any tab part or add personal notes – all changes will be seen only by you.

Personal tabs can be accessed anytime from any device, even offline.
Learn more »
Give kudos to tab author, rate the tab!
1 2 3 4 5
comments
print report bad tab
guest
Wanna post a correction for this tab? Suggest correction