Oops, an error
Loading. Please wait.

Últimos Días tab

version 1
version 1

Whole song

by Zoe
223 views 6 this week
no commentswrite comment
1 2 3 4 5
2 more votes to show rating
add to favorites
×
Save as Personal and add changes to this tab that will be seen only by you. Learn more ›
×
You can save this tab as Personal to edit and correct it or add notes. All changes will be seen only by you. Learn more »
launch autoscroll
font size
0
reset
how to read this tab
guitar tuner
edit
Autoscroll
slow
fast
+/-
esc
set tempo
stop
Intro F C x 2

F                           C
Hoy voy, hoy voy a pasarla bien
F                                     C
Me voy a amplificar, me voy a desvanecer
F                                     C
Nada me detiene, nada que me pueda parar
F                                        C
Soy una frecuencia con un millón de megahertz

F                           C
Hey Hope, vamos a confeccionar
F                                C
La telaraña de, de nuestra realidad
F                                       C
Hundirse en la arena, bajo la risa del mar
F                                     C
Volverse sonambulo y no repetirse jamás

Bm                C*
Un árbol de look cerebral
Bm                C*
Soñaba me enseñaba a respirar
Bm                C*      D*
Una gamma de felicidad

Bm              C*
No tengas miedo de volar
Bm             C*
Nada te va a lastimar
Bm             C*      D*
Planeador del alma

(F C)
1]-------------------------------------------------------------[
2]----0-2-0----------0-2-0-------------------------------------[
3]----------2-2-2----------2-2-2-----0-2-0---------------------[
4]-----------------------------------------2-2-2----0-2-0-2----[
5]-------------------------------------------------------------[
6]-------------------------------------------------------------[

(F C)
1]-7-8-7-----------7-8-7---------------------------------------[
2--------10-10-10--------10-10-10-----8-10-8-------------------[
3]-------------------------------------------9-9-9----7-9-7-9--[
4]-------------------------------------------------------------[
5]-------------------------------------------------------------[
6]-------------------------------------------------------------[

F                        C
Hoy voy, hoy voy a crucificar
F                                      C
Todas las mentiras que flotan en alta mar
F                                                 C
Traigo estrella en el hombro y relámpagos salen de mí
F                                   C
Y las hormigas corren aterradas JA JA JA

Bm                C*
Un árbol de look cerebral
Bm                C*
Soñaba me enseñaba a respirar
Bm                C*      D*
Una gamma de felicidad

Bm              C*
No tengas miedo de volar
Bm              C*
Nada te va a lastimar
Bm              C*      D*
Planeador del alma

Cm        Fm        Gm
No los dejen entrar
Gm        Fm         Cm
No los dejen destruir
Cm        Fm         Gm
No los dejen dominar

Cm        Fm        Gm
No los dejen entrar
Gm        Fm         Cm
No los dejen destruir
Cm        Fm         Gm
No los dejen dominar

Cm        Fm        Gm
No los dejen entrar
Gm        Fm         Cm
No los dejen destruir
Cm        Fm         Gm
No los dejen dominar
Cm        Fm        Gm
No los dejen entrar
Gm        Fm         Cm
No los dejen destruir
Cm        Fm         Gm
No los dejen dominar

Cm Fm Gm


     F
e|---x-----|
B|---1-----|
G|---2-----|
D|---3-----|
A|---3-----|
E|---------|

     C*
e|---3-----|
B|---3-----|
G|---5-----|
D|---5-----|
A|---3-----|
E|---3-----|

     D*
e|---5-----|
B|---5-----|
G|---7-----|
D|---7-----|
A|---5-----|
E|---5-----|


Saludos...att bobbi
Suggest correction
Creating personal tab
Creating personal tab
You can edit any tab online and save it as your Personal.

You can edit, replace or remove any tab part or add personal notes – all changes will be seen only by you.

Personal tabs can be accessed anytime from any device, even offline.
Learn more »
Give kudos to tab author, rate the tab!
1 2 3 4 5
comments
print report bad tab
guest
Wanna post a correction for this tab? Suggest correction