Oops, an error
Loading. Please wait.

Vía Láctea tab

version 1
version 1

Whole song

Interactive

by Zoe
160 views 3 this week
no commentswrite comment
1 2 3 4 5
2 more votes to show rating
add to favorites
×
Save as Personal and add changes to this tab that will be seen only by you. Learn more ›
×
You can save this tab as Personal to edit and correct it or add notes. All changes will be seen only by you. Learn more »
launch autoscroll
font size
0
reset
how to read this tab
guitar tuner
edit
Autoscroll
slow
fast
+/-
esc
set tempo
stop
¡ESTA ES LA VIA LACTEA DEL MEMO REX COMANDER Y EL CORAZÓN ATOMICO!

bajo
g|-----------------------------------------------------| lo del paren-
d|-----------------------------------------------------|tesis es antes
a|--7-7-9-9-10-10-9-9-------12-12-10-12----------------|del precoro
e|--------------------8-7-8-------------8-7-8---(0-3-0)|

intro
      E      C        A       C
e|----------------------------------------------------------|
B|----------------------------------------------------------|
G|--11111---00000---22222---00000---------------------------|
D|--22222---22222---22222---22222---------------------------|   X2
A|--22222---33333---00000---33333---------------------------|
E|----------------------------------------------------------|


(en esta parte va el bajo como en el intro y
un pequeño acento de la guitarra)

Llevo tu voz en mi voz
grabada con aerosol
(acento en E como en el intro)
beso fantasma pegado en mi labio inferior
y el mapa de tu desnudez

precoro:
           C           D
Llevo el prisma de tus ojos
      Bm             C
en mi casco de astronauta
     Am        C           G
Y la tímida aurora de tus células

Coro:
g|-----------------------------------------------------|
d|-----------------------------------------------------|
a|----------------------------9999999999999------------|
e|-99999999999---33333333333------------------333333333|

e|-0000000---3333333----0000000---2222222---0000000-------------|
B|-1111111---0000000-X3-1111111---3333333---0000000-------------|
G|-0000000---0000000----0000000---2222222---0000000-------------|
D|--------------------------------------------------------------|
A|--------------------------------------------------------------|
E|--------------------------------------------------------------|

Y todas las noches bajo la vía láctea
parecen eternas sí tú no estás
Todas las noches desde mi ventana
conjuro tu nombre inmortal

(aquí va el bajo del intro pero sin el acento)
Y a veces llora mi piel
Cuando se baña de anhelo
se infla mi mente con tantos recuerdos
que ya no me puedo dormir


precoro:
        C              D
Y la alfombra de tus sueños
      Bm        C
En el rayo vagabundo
   Am                G
desmaya y dolece pero no se apaga

coro:(como el primer coro)

Y todas las noches bajo la vía láctea
parecen eternas si tú no estás
todas las noches desde mi ventana
conjuro tu nombre inmortal

hay una pausa con el bajo del intro que se repite dos veces

(en esta parte solo se queda el bombo)
Llevo el prisma de tus ojos
en mi casco de astronauta
Y la tímida aurora de tus células...

(el solo se escucha mejor de esta forma)
e|---7-7-7-8-7-5-7-7-7-X3------------------------------|
B|-------------------------7-7-8-8-8-8-8-8-------------|
G|-----------------------------------------------------|
D|-----------------------------------------------------|
A|-----------------------------------------------------|
E|-----------------------------------------------------|


Via lactea...
Suggest correction
Creating personal tab
Creating personal tab
You can edit any tab online and save it as your Personal.

You can edit, replace or remove any tab part or add personal notes – all changes will be seen only by you.

Personal tabs can be accessed anytime from any device, even offline.
Learn more »
Give kudos to tab author, rate the tab!
1 2 3 4 5
comments
print report bad tab
guest
Wanna post a correction for this tab? Suggest correction