Oops, an error
Loading. Please wait.

Vía Láctea tab

version 2
version 2

Whole song

Interactive

by Zoe
127 views 3 this week
no commentswrite comment
1 2 3 4 5
3 more votes to show rating
add to favorites
×
Save as Personal and add changes to this tab that will be seen only by you. Learn more ›
×
You can save this tab as Personal to edit and correct it or add notes. All changes will be seen only by you. Learn more »
launch autoscroll
font size
0
reset
how to read this tab
guitar tuner
edit
Autoscroll
slow
fast
+/-
esc
set tempo
stop
Vía Láctea

Intro Guitarra con Palm Mute
e-----------------------------------------------------------------
B-----------------------------------------------------------------
G------------7-7--------------------9-9-7-7-----------------------
D----9-9-7-7---10-10-9-9-7-7-9-9-7-7-------10-10-9-9-7-7-10-10-9-9
A-7-7-------------------------------------------------------------
E-----------------------------------------------------------------

Intro Acordes
Em-C-Am-C x2
Llevo tu voz en mi voz?
De nuevo el intro P.M.
e-----------------------------------------------------------------
B-----------------------------------------------------------------
G-----9-9-7-7-----------------------------------------------------
D--7-7-------10-10-9-9-7-7-10-10-9-9------------------------------
A-----------------------------------------------------------------
E-----------------------------------------------------------------
Grabada con aerosol?
e-------12-12-12-12-12-12-12
B---------------------------
G---------------------------
Em
Tu beso fantasma pegado en mi labio inferior?
e-------12-12-12-12-12-12-12
B---------------------------
G---------------------------
Y el mapa de tu desnudez?
e-----------------------------------------------------------------
B-----------------------------------------------------------------
G-----9-9-7-7-----------------------------------------------------
D--7-7-------10-10-9-9-7-7-10-10-9-9------------------------------
A-----------------------------------------------------------------
E-----------------------------------------------------------------
         C             D
Llevo el prisma de tus ojos
      Bm            Em
En mi casco de astronauta
     Am     C             G
Y la tímida aurora de tus células

Y todas las noches bajo la Vía Láctea parecen eternas si tú no estas
Y todas las noches desde mi ventana conjuro tu nombre inmortal.

Esto se escucha durante todo el coro.
e--------------------------------------------
B-----12-12-12-12-12-12-12-12-12-12-12-12----
G----------------------------------------11-9

Solo
e----------------------------------------------
B----------------------------------------------
G-9-7------------------------------------------
D----10-9--10-5-5-7-7--7-9-7-9-9-7-9-7-9-9h10-9
A----------------------------------------------
E----------------------------------------------
Y a veces llora mi piel.
Cuando se empaña de anhelo?
e-----------------------------------------------------------------
B-----------------------------------------------------------------
G-----9-9-7-7-----------------------------------------------------
D--7-7-------10-10-9-9-7-7-10-10-9-9------------------------------
A-----------------------------------------------------------------
E-----------------------------------------------------------------
Se infla mi mente con tantos recuerdos?
e-------12-12-12-12-12-12-12
B---------------------------
G---------------------------
Que ya no me puedo dormir
e-----------------------------------------------------------------
B-----------------------------------------------------------------
G-----9-9-7-7-----------------------------------------------------
D--7-7-------10-10-9-9-7-7-10-10-9-9------------------------------
A-----------------------------------------------------------------
E-----------------------------------------------------------------
     C               D
Y la alfombra de tus sueños
       Bm       Em
Soy el rayo vagabundo
     Am       C
Y desmaya y dolece
     G
Pero no se apaga

Y todas las noches bajo la Vía Láctea parecen eternas si tú no estas
Y todas las noches desde mi ventana conjuro tu nombre inmortal.
e--------------------------------------------
B-----12-12-12-12-12-12-12-12-12-12-12-12----
G----------------------------------------11-9

Palm Mute
e-----------------------------------------------------------------
B-----------------------------------------------------------------
G------------7-7--------------------9-9-7-7-----------------------
D----9-9-7-7---10-10-9-9-7-7-9-9-7-7-------10-10-9-9-7-7-10-10-9-9
A-7-7-------------------------------------------------------------
E-----------------------------------------------------------------
X2

Llevo el prisma de tus ojos
En mi casco de astronauta
Y la tímida aurora de tus células?

Solo
e-------------------------------------|---------------------
B-12-12-12-13-12-10-12-12-12-12-12-12-|---------------------
G-------------------------------------|---11-11h12-12-12-12-
D-------------------------------------|---------------------
A-------------------------------------|---------------------
E-----------------------------------X3|---------------------
X3

Vía Láctea
Vía Láctea
Vía Láctea si tú no estas?

Y sé que te vuelvo a encontrar.
e----
B----
G--9-
D----
A----
E----

            
            
Suggest correction
Creating personal tab
Creating personal tab
You can edit any tab online and save it as your Personal.

You can edit, replace or remove any tab part or add personal notes – all changes will be seen only by you.

Personal tabs can be accessed anytime from any device, even offline.
Learn more »
Give kudos to tab author, rate the tab!
1 2 3 4 5
comments
print report bad tab
guest
Wanna post a correction for this tab? Suggest correction