Oops, an error
Loading. Please wait.

Vía Láctea tab

version 3
version 3

Whole song

Interactive

by Zoe
88 views 1 this week
no commentswrite comment
1 2 3 4 5
3 more votes to show rating
add to favorites
×
Save as Personal and add changes to this tab that will be seen only by you. Learn more ›
×
You can save this tab as Personal to edit and correct it or add notes. All changes will be seen only by you. Learn more »
launch autoscroll
font size
0
reset
how to read this tab
guitar tuner
edit
Autoscroll
slow
fast
+/-
esc
set tempo
stop
TZV..

INTRO: (LA GUITARRA INICIA AL MINUTO 0:09 EN PALM MUTE)
e-----------------------------------------------------------------------|
B-----------------------------------------------------------------------|
G-99-------------------------------------99-----------------------------|
D----99------1212-1010-99-------------------1212-1010-99------1010-99---|
A-------1010--------------1212-1010-1212-----------------1212-----------|
E-----------------------------------------------------------------------|

LUEGO CON ACORDES Em C Am C x2

VERSO:
(EN PALM MUTE)
e-------------------------------------|
B-------------------------------------|
G------99-----------------------------|
D---------1212-1010-99------1010-99---|
A-1212-----------------1212-----------|
E-------------------------------------|

e-12-12-121212121212-12---|
B-------------------------|
G-------------------------|
D-------------------------|
A-------------------------|
E-------------------------|

e------|
B------|
G------|
D-2~---|
A-2~---|
E-0~---|

e-12-12-12-12-12-12-12---|
B------------------------|
G------------------------|
D------------------------|
A------------------------|
E------------------------|

e-------------------------------------|
B-------------------------------------|
G------99-----------------------------|
D---------1212-1010-99------1010-99---|
A-1212-----------------1212-----------|
E-------------------------------------|

PRECORO: C D B C Am C G~

CORO:
GUITARRA 1: C G C G C G C D Em~

GUITARRA 2:
e-7777777777777777777777777777777777777777777777777777777777777777---|
B-8888888888888888888888888888888888888888888888888888888888888888---|
G--------------------------------------------------------------------| x2
D--------------------------------------------------------------------|
A--------------------------------------------------------------------|
E--------------------------------------------------------------------|
TERMINANDO EL CORO DEJAR SONANDO

LUEGO HACE ESTO:
e---------------------------------|
B-53------------------------------|
G---544~-540~-2~-2424~-2424~-54~---|
D---------------------------------|
A---------------------------------|
E---------------------------------|

VERSO:
e-------------------------------------|
B-------------------------------------|
G------99-----------------------------|
D---------1212-1010-99------1010-99---|
A-1212-----------------1212-----------|
E-------------------------------------|

e-12-12-12-12-12-12-12---|
B------------------------|
G------------------------|
D------------------------|
A------------------------|
E------------------------|

e-------------------------------------|
B-------------------------------------|
G------99-----------------------------|
D---------1212-1010-99------1010-99---|
A-1212-----------------1212-----------|
E-------------------------------------|

PRECORO: C D B C Am C G~

CORO:
GUITARRA 1: C G C G C G C D Em~

GUITARRA 2:
e-7777777777777777777777777777777777777777777777777777777777777777---|
B-8888888888888888888888888888888888888888888888888888888888888888---|
G--------------------------------------------------------------------| x2
D--------------------------------------------------------------------|
A--------------------------------------------------------------------|
E--------------------------------------------------------------------|

DESPUES HACEN ESTO:
GUITARRA 1 x2
e-----------------------------------------------------------------------|
B-----------------------------------------------------------------------|
G-99-------------------------------------99-----------------------------|
D----99------1212-1010-99-------------------1212-1010-99------1010-99---|
A-------1010--------------1212-1010-1212-----------------1212-----------|
E-----------------------------------------------------------------------|

GUITARRA 2 x2

e-12-121212121212-12---|
B----------------------|
G----------------------|
D----------------------|
A----------------------|
E----------------------|

SOLO:
GUITARRA 1: C D B C Am C G
            C G C G C G C D Em
            C D Em

GUITARRA 2: x3
e-7778757-777-77778757-777777778757-7777777------------------|
B-------------------------------------------77-88-88-88-88---|
G------------------------------------------------------------|
D------------------------------------------------------------|
A------------------------------------------------------------|
E------------------------------------------------------------|

e------------|
B------------|
G-5~-7~-9~---|
D-5~-7~-9~---|
A-3~-5~-7~---|
E------------|

            
            
Suggest correction
Creating personal tab
Creating personal tab
You can edit any tab online and save it as your Personal.

You can edit, replace or remove any tab part or add personal notes – all changes will be seen only by you.

Personal tabs can be accessed anytime from any device, even offline.
Learn more »
Give kudos to tab author, rate the tab!
1 2 3 4 5
comments
print report bad tab
guest
Wanna post a correction for this tab? Suggest correction