Oops, an error
Loading. Please wait.

Vía Láctea tab

version 4
version 4

Whole song

Interactive

by Zoe
73 views 3 this week
no commentswrite comment
1 2 3 4 5
3 more votes to show rating
add to favorites
×
Save as Personal and add changes to this tab that will be seen only by you. Learn more ›
×
You can save this tab as Personal to edit and correct it or add notes. All changes will be seen only by you. Learn more »
launch autoscroll
font size
0
reset
how to read this tab
guitar tuner
edit
Autoscroll
slow
fast
+/-
esc
set tempo
stop

--Via Lactea--
Intro
Bass:
           E            C        A          C
G|-----------------------------------------------------|
D|-----------------------------------------------------|
A|--7-7-9-9-10-10-9-9/3-3-2-3/12-12-10-12/3-3-2-3------|
E|-----------------------------------------------------|
    (e-e-f#-f#-g-g-f#-f#-c-c-b-c-a-a-g-a-c-c-b-c)

Si ponen mucha atención y escuchan, antes de empezar con A
una guitarra toca:
 Guit 1
D|-----------------------------------------------------|
A|--10-10-10-10-10-10-10---10-10-10-10-10-10-10--------|
E|-----------------------------------------------------|
 Guit 2         (1)               (2)
e|---------------------------|---------------------------|
B|---------------------------|---------------------------|
G|---------77----------------|---99-77-------------------|
D|----99-77--1010-99-77-10-9-|-77-----1010-99-77-10-9----|
A|-77------------------------|---------------------------|
E|---------------------------|---------------------------|

Em C Am Cm Em C Am C - Em

El tec va con estas notas ke puedes hacer con la guit
e|----------------------------|
B|-----------10---10-8-10-----|
G|-9---9-7-9------------------|
A|----------------------------|
  (e - e d e - a - a g a )

Verso:                                                 (3)
(Si usan 2 guit una puede hacer acordes y      e|-12-12---12-12--|
 la otra usar los arreglos)                    B|-12-12---12-12--|
Em         C         Am (2)  C                 G|-12-12---12-12--|
Llevo tu voz en mi voz
Em         C       Am (3)  C
Grabada con aerosol
Em             C                      (3)  Am   C
Beso fantasma pegado en mi labio inferior
Em            C      Am (2)  C
Y el mapa de tu desnudez

PreCoro:
           C           D
Llevo el prisma de tus ojos
      Bm             C
En mi casco de astronauta
          Am        C           G
Y la tímida aurora de tus célulasCoro

Coro:
   C                 G
Y todas las noches bajo la vía láctea
   C                G
Parecen eternas sí tú no estás
 C                   G
Todas las noches desde mi ventana
   C        D           Em
Conjuro tu nombre inmortal

(Y la otra guit haces esto)
     C     G     C     G    Em
e|-8-8-8-7-7-7-8-8-8-7-7-7-|--------|
B|-8-8-8-8-8-8-8-8-8-8-8-8-|-8h-----|
G|-7-7-7-7-7-7-7-7-7-7-7-7-|----9h--|
D|-------------------------|--------|

 Solo 1
e|------------------|---------|--------|-------|
B|------------------|---------|--------|-------|
G|-9-7--------------|---------|--------|-------|
D|-----10-9-10----7-|-7-9-7-9-|-7-9-7-9|-10-9h-|
A|-------------10---|---------|--------|-------|
E|------------------|---------|--------|-------|

Em           C       Am   C
Y a veces llora mi piel
Em          C        Am (2)  C
Cuando se baña de anhelo
Em           C       Am   C         (3)
Se infla mi mente con tantos recuerdos
Em             C     Am   C (2)
Que ya no me puedo dormir

        C              D
Y la alfombra de tus sueños
      Bm        Em
Soy el rayo vagabundo
   Am                G
Y desmaya y dolese pero no se apaga

CORO - INTRO
PRECORO(este lo pueden hacer rasgueando solo una ves cada acorde)

SOLO 2 la otra guit puede tocar mientras nadie canta
      C  D  Bm  C  Am  C   G
e|--------------------------------|----|----------------------||
B|-12-12-12-13-12--10-12-12-12-12-|----|----------------------||
G|--------------------------------|----|-11-11-12-12-12-12-12-||
D|--------------------------------|-X3-|----------------------||
A|--------------------------------|----|----------------------||
E|--------------------------------|----|----------------------||

C            G
Vía Láctea...Vía Láctea...
C            G
Vía Láctea...Si tú no estás...
C            G                                      E5
Vía Láctea...Vía Láctea...                        exxxxxx|
C         D   Em                                  Bxxxxxx|
Vía Láctea...Si tú no estás                       G--9---|
C              D           Em   E5°               D--9---|
Y se que te vuelvo a encontrar                    A--7---|
                                                  E------|
Suggest correction
Creating personal tab
Creating personal tab
You can edit any tab online and save it as your Personal.

You can edit, replace or remove any tab part or add personal notes – all changes will be seen only by you.

Personal tabs can be accessed anytime from any device, even offline.
Learn more »
Give kudos to tab author, rate the tab!
1 2 3 4 5
comments
print report bad tab
guest
Wanna post a correction for this tab? Suggest correction