Oops, an error
Loading. Please wait.

Carta Al Señor Presidente tab

16 views 1 this week
no commentswrite comment
1 2 3 4 5
3 more votes to show rating
add to favorites
×
Save as Personal and add changes to this tab that will be seen only by you. Learn more ›
×
You can save this tab as Personal to edit and correct it or add notes. All changes will be seen only by you. Learn more »
launch autoscroll
font size
0
reset
how to read this tab
guitar tuner
edit
Autoscroll
slow
fast
+/-
esc
set tempo
stop
Verso----------------------------------------------------|


La Intro y los Versos donde lee la carta es en ritmo Ska
y consta de tres Acordes:

Em - D - F

Se toca de la siguiente forma:

   Em                D              F
e|-7-7-7-7-7-7-7-7-|-5-5-5-5-5-5--5-8--8--|
B|-8-8-8-8-8-8-8-8-|-7-7-7-7-7-7--7-10-10-|
G|-9-9-9-9-9-9-9-9-|-7-7-7-7-7-7--7-10-10-|
D|-9-9-9-9-9-9-9-9-|-7-7-7-7-7-7--7-10-10-|
A|-7-7-7-7-7-7-7-7-|-5-5-5-5-5-5--5-8--8--|
E|-----------------|----------------------|

Escuchen y toquen al mismo tiempo para cogerle bien el ritmo


Coro---------------------------------------------------|

La parte del Oh, oh, oh, oh, oh.

   Em                D
e|-7-7-7-7-7-7-7-7-|-5-5-5-5-5-5-5-5-|
B|-8-8-8-8-8-8-8-8-|-7-7-7-7-7-7-7-7-|
G|-9-9-9-9-9-9-9-9-|-7-7-7-7-7-7-7-7-|
D|-9-9-9-9-9-9-9-9-|-7-7-7-7-7-7-7-7-|
A|-7-7-7-7-7-7-7-7-|-5-5-5-5-5-5-5-5-|
E|-----------------|-----------------|


Final---------------------------------------------------|

Con Distorsión se toca con acordes de quintas

  E5    G5 F#5 F5 F#5 F5 E5
e|--------------------|
B|--------------------|
G|--------------------|
D|-2----5-4-3--4-3-2--|
A|-2----5-4-3--4-3-2--|
E|-0----3-2-1--2-1-0--|

Luego

  E5                 G5 F#5 F5 F#5 F5 E5
e|---------------------------------|
B|---------------------------------|
G|---------------------------------|
D|-2-2-2-2-2-2-2-2---5-4-3--4-3-2--|
A|-2-2-2-2-2-2-2-2---5-4-3--4-3-2--|
E|-0-0-0-0-0-0-0-0---3-2-1--2-1-0--|


-------------------------------------------------------------|

Letra

Verso----------------------------------------------------|

Cuenca 13 de Junio del 2004
Señor presidente  de  la Republica
Lucio Gutiérrez
En su despacho

Nosotros  Los Zuchos del  Vado queremos pedirle en
vista de su
ineptitud  falta de palabra y descaro que cambie su
gobierno ya o que se largue porque como lo dijo Bob
 Marley usted engañó a unos cuantos por un momento pero
no engañará a todos todo el tiempo.

Coro------------------------------------------------------|

Can fool some people sometimes.
But you can't fool all the people all the time. Yeah

Verso-----------------------------------------------------|

Presidente  nos a traicionado a repartido al país entre
sus cómplices y secuaces para ellos usted  es menos
 que una ficha de ajedrez para nosotros usted no tiene
sonido no vibra no siente  no es nada jamás debimos
 confiar en un milico de usted y todos sus secuaces
 nos arrepentimos y quedamos
Los Zuchos del Vado
Planeta, Tierra, Libertad  y Rock and Roll.

Coro------------------------------------------------------|

HEY Bobby Marley.
Sing Someting good to me
This world go crazy?
It's an emergency?
HEY Bobby Marley.
Sing Someting good to me
This world go crazy?
It's an emergency?

Final----------------------------------------------------|

Querido  señor presidente
Quítame el fusil de la cara hijueputa
Querido  señor presidente
Quítame el fusil de la cara hijueputa
de la cara hijueputa???????

            
            
Suggest correction
Creating personal tab
Creating personal tab
You can edit any tab online and save it as your Personal.

You can edit, replace or remove any tab part or add personal notes – all changes will be seen only by you.

Personal tabs can be accessed anytime from any device, even offline.
Learn more »
Give kudos to tab author, rate the tab!
1 2 3 4 5
comments
print report bad tab
guest
Wanna post a correction for this tab? Suggest correction