Oops, an error
Loading. Please wait.

Quiceañera tab

22 views 1 this week
no commentswrite comment
1 2 3 4 5
3 more votes to show rating
add to favorites
×
Save as Personal and add changes to this tab that will be seen only by you. Learn more ›
×
You can save this tab as Personal to edit and correct it or add notes. All changes will be seen only by you. Learn more »
launch autoscroll
font size
0
reset
how to read this tab
guitar tuner
edit
Autoscroll
slow
fast
+/-
esc
set tempo
stop
Yo la saque de la siguiente manera y pienso que suena mejor que
LA anterior transcripcion:


Primera Parte

VERSO-------------------------------------------------------|


Los dos primeros Versos el ritmo es similar a una cumbia:

Silencio-Abajo-Arriba-Silencio-Abajo


   G                     C         D
e|-x-3-3-x-3-x-3-3-x-3-|-x-3-3-x-3-x-5-5-x-5-|
B|-x-3-3-x-3-x-3-3-x-3-|-x-5-5-x-5-x-7-7-x-7-|
G|-x-4-4-x-4-x-4-4-x-4-|-x-5-5-x-5-x-7-7-x-7-|
D|-x-5-5-x-5-x-5-5-x-5-|-x-5-5-x-5-x-7-7-x-7-|
A|-x-5-5-x-5-x-5-5-x-5-|-x-3-3-x-3-x-5-5-x-5-|
E|-x-3-3-x-3-x-3-3-x-3-|---------------------|

   G                     C         D
e|-x-3-3-x-3-x-3-3-x-3-|-x-3-3-x-3-x-5-5-x-5-|
B|-x-3-3-x-3-x-3-3-x-3-|-x-5-5-x-5-x-7-7-x-7-|
G|-x-4-4-x-4-x-4-4-x-4-|-x-5-5-x-5-x-7-7-x-7-|
D|-x-5-5-x-5-x-5-5-x-5-|-x-5-5-x-5-x-7-7-x-7-|
A|-x-5-5-x-5-x-5-5-x-5-|-x-3-3-x-3-x-5-5-x-5-|
E|-x-3-3-x-3-x-3-3-x-3-|---------------------|


   Em                                C   D
e|-x-7-7-x-7-x-7-7-x-7-|-x-7-7-x-7---3---5-|
B|-x-8-8-x-8-x-8-8-x-8-|-x-8-8-x-8---5---7-|
G|-x-9-9-x-8-x-9-9-x-9-|-x-9-9-x-9---5---7-|
D|-x-9-9-x-9-x-9-9-x-9-|-x-9-9-x-9---5---7-|
A|-x-7-7-x-7-x-7-7-x-7-|-x-7-7-x-7---3---5-|
E|---------------------|-------------------|


         G
yo no se
C                 D
por que te sientes hoy tan diferente

G
(todo lo que crece,todo lo que crece)
C                  D
por que no quieres nada con la gente

Em
que sera (que sera, que sera)
       C      D
que sera hayyaa


         G
yo no se
C                 D
por que tu cuerpo cambia ya de niña

G
(y de armonia)
C                  D
por que niña tu no eres la misma

Em
que sera (que sera, que sera)
       C      D
que sera hayyaa


-------------------------------------------------------------|

CORO---------------------------------------------------------|

En el coro se usan los cuatro mismos acordes en quintas:

   G5              E5
e|---------------------------------|
B|---------------------------------|
G|-----------------9-9-9-9-9-9-9-9-|
D|-5-5-5-5-5-5-5-5-9-9-9-9-9-9-9-9-|
A|-5-5-5-5-5-5-5-5-7-7-7-7-7-7-7-7-|
E|-3-3-3-3-3-3-3-3-----------------|

   C5              D5
e|---------------------------------|
B|---------------------------------|
G|-5-5-5-5-5-5-5-5-7-7-7-7-7-7-7-7-|
D|-5-5-5-5-5-5-5-5-7-7-7-7-7-7-7-7-|
A|-3-3-3-3-3-3-3-3-5-5-5-5-5-5-5-5-|
E|---------------------------------|

Este Riff se repite unas 12 veces durante el coro

Luego se toca otra vez el verso y el coro

--------------------------------------------------------|
--------------------------------------------------------|

Segunda Parte

Intro---------------------------------------------------|

   G5        E5
e|-------------------------|
B|-------------------------|
G|-----------9-9-9-9-9-9---|
D|-5----5----9-9-9-9-9-9---|
A|-5----5----7-7-7-7-7-7---|
E|-3----3------------------|


   C5        D5
e|-------------------------|
B|-------------------------|
G|-5----5----7-7-7-7-7-7---|
D|-5----5----7-7-7-7-7-7---|
A|-3----3----5-5-5-5-5-5---|
E|-------------------------|

Se Repite 4 Veces

--------------------------------------------------------|

Vesro---------------------------------------------------|


  G            Em         C         D
e|-x-3-3-x-3-x-7-7-x-7-|-x-3-3-x-3-x-5-5-x-5-|
B|-x-3-3-x-3-x-8-8-x-8-|-x-5-5-x-5-x-7-7-x-7-|
G|-x-4-4-x-4-x-9-9-x-9-|-x-5-5-x-5-x-7-7-x-7-|
D|-x-5-5-x-5-x-9-9-x-9-|-x-5-5-x-5-x-7-7-x-7-|
A|-x-5-5-x-5-x-7-7-x-7-|-x-3-3-x-3-x-5-5-x-5-|
E|-x-3-3-x-3-x---------|---------------------|

G                    Em
yo soy la mas buena la chucha de la fiesta

C                    D
nos vamos a tu cuarto si me pones una cerveza

G                    Em
Soy la mas buena de la fiesta

C                    D
nos vamos a tu cuarto si me pones una cerveza


   G5       E5         C5       D5
e|-------------------|-------------------|
B|-------------------|-------------------|
G|----------9--------|-5--------7--------|
D|-5--------9--------|-5--------7--------|
A|-5--------7--------|-3--------5--------|
E|-3-----------------|-------------------|

Se Toca el Coro nuevamente y al final


   G        Em         C        D
e|-3--------7--------|-3--------5-5-x-5-|
B|-3--------8--------|-5--------7-7-x-7-|
G|-4--------9--------|-5--------7-7-x-7-|
D|-5--------9--------|-5--------7-7-x-7-|
A|-5--------7--------|-3--------5-5-x-5-|
E|-3-----------------|------------------|


G     Em        C       D
Estoy sangrando como... Quinceañera

-------------------------------------------------------------|

Espero que les guste voy a seguir subiendo tabs de los tres discos
de los Zuchos.
Suggest correction
Creating personal tab
Creating personal tab
You can edit any tab online and save it as your Personal.

You can edit, replace or remove any tab part or add personal notes – all changes will be seen only by you.

Personal tabs can be accessed anytime from any device, even offline.
Learn more »
Give kudos to tab author, rate the tab!
1 2 3 4 5
comments
print report bad tab
guest
Wanna post a correction for this tab? Suggest correction