Oops, an error
Loading. Please wait.

Pequeño Samurai chords

8 views 1 this week
no commentswrite comment
1 2 3 4 5
3 more votes to show rating
add to favorites
×
Save as Personal and add changes to this tab that will be seen only by you. Learn more ›
×
You can save this tab as Personal to edit and correct it or add notes. All changes will be seen only by you. Learn more »
launch autoscroll
font size
0
reset
transpose
0
reset
display chords
guitar tuner
edit
Autoscroll
slow
fast
+/-
esc
set tempo
stop
Strumming
There is no strumming pattern for this song yet. and get +5 IQ
Riff
1-------------------------------|----------------------------
2-------------------------------|----------------------------
3--9-9--------------------------|-9-9------------------------
4------7-7-10-10-7-7------------|-----7-7-10-10-7-7-----10-7-
5--------------------10-10--8-7-|------------------10-7------
6-------------------------------|----------------------------


Am        C          G
En la bola de cristal veo clones
de campeones de cotillón
encriptados en la gran desesperanza
bajo fianza ríen mejor

Riff

soy el último eslabón de la cadena
por mis venas corre tu amor
hombres zumbadores que van hacia el monte
absorbiendo el polen de dios

C
colibrí sagrado
D
?guani? zumbador
del tamaño de un centavo

Am         C
salgo y me prendo fuego
G
es un carnaval
sé que no puedo perder
vuelvo tan aferrado a la libertad
quiero conocerte
E
estoy perdido?
¡pero sin querer que me encuentres!

Riff

sólo quiero escuchar tu melodía
otra vida está por venir
bailás en el mismo lugar una danza inmortal
de samurái sin pedigree

nunca nadie había tentado a dios
acostándose con el diablo

Esto lo hace despues de un estribillo,, fijense...

3---------------7-----9--7-----------------------------------
4---7-7-7---10------------10-7----7-7-7----10----------------
5---------------------------------------------10-------------
6------------------------------------------------------------


bueno eso fue,,, espero les guste cualquier cosa me avisan
ta luego
pollo#14

            
            
Suggest correction
Creating personal tab
Creating personal tab
You can edit any tab online and save it as your Personal.

You can edit, replace or remove any tab part or add personal notes – all changes will be seen only by you.

Personal tabs can be accessed anytime from any device, even offline.
Learn more »
Give kudos to tab author, rate the tab!
1 2 3 4 5
comments
print report bad tab
guest
Wanna post a correction for this tab? Suggest correction