Oops, an error
Loading. Please wait.

Dragón tab

11 views 1 this week
no commentswrite comment
1 2 3 4 5
3 more votes to show rating
add to favorites
×
Save as Personal and add changes to this tab that will be seen only by you. Learn more ›
×
You can save this tab as Personal to edit and correct it or add notes. All changes will be seen only by you. Learn more »
launch autoscroll
font size
0
reset
how to read this tab
guitar tuner
edit
Autoscroll
slow
fast
+/-
esc
set tempo
stop
Dragón - Zurdok Movimento
Por L@rgallagher

***** Afinacion en dropped D *****
La sexta cuerda esta en Re.

*= Cambia rapidamente de trastes indicados segun la cancion.
b= Bend

Intro 1: Con teclado y piano. La parte del piano esta 
adaptada para guitarra:

e----------5-3-1-3--1-0---0-1-1--|
b--3-5-6-3--------------3--------|
g--------------------------------|
D--------------------------------|
A--------------------------------|
D--------------------------------|

Al terminar este riff, entre este en guitarra electrica:

e-----------------|
b-----------------|
g-----------------|
D-3-3-3-0/3-3-3-3-|
A-3-3-3-0/3-3-3-3-|
D-3-3-3-0/3-3-3-3-|

Versos:

'Las sensaciones de.....'
e----5-----7-----1-----5-5--|---------------------------|
b----7-----9-----1-----7-7--|---------------------------|
g----7-----9-----2-----7-7--|---------------------------|
D--X---X-X---X-X---X-X------|-2-2-X-X-X-0-2-0-2-X-X-2-0-|
A--X---X-X---X-X---X-X------|-2-2-X-X-X-0-2-0-2-X-X-2-0-|
D--X---X-X---X-X---X-X------|-2-2-X-X-X-0-2-0-2-X-X-2-0-|

'Y mientras van creciendo......'
e----------------------------------------------|
b----------------------------------------------|
g-7-5-4-2---------7-7-7-7-7--------------------|
D-7-5-4-2-5---5---7-7-7-7-7--------------------|
A-5-3-2-0-5---5---5-5-5-5-5-3-5-3-5/7-7b-7b-5--|
D---------5---5--------------------------------|

Intro 2: 

e------------------------|-----------------|
b-----7-------5-------3--|-----------------|
g---7---7---6---6---4---4|-----------------|
D-7-------7-------5------|-3-3-3-0/3-3-3-3-|
A------------------------|-3-3-3-0/3-3-3-3-|
D------------------------|-3-3-3-0/3-3-3-3-|

Coro 1:

e-------------------------------------|
b-------------------------------------|
g-7--5--4---------5-5-5---------------|
D-7--5--4--5------5-5-5---------------|(2 Veces)
A-5--3--2--5----2-3-3-3-5*6*7-8-10-6--|
D----------5--5-----------------------|

Coro 2:

e-------------------------------------|
b-------------------------------------|
g-7--5--4---------5-5-5---------------|
D-7--5--4--5------5-5-5---------------|
A-5--3--2--5----2-3-3-3-5*6*7-8-10-6--|
D----------5--5-----------------------|

e----------------------------------|
b----------------------------------|
g-7--5--4---------9-9-9------------|
D-7--5--4--5------9-9-9------------|
A-5--3--2--5----2-7-7-7-7*8*9-9-9--|
D----------5--5--------------------|

Ahora, el orden que sigue la cancion es este:

Intro
Verso
Intro 2
Verso
Coro 1
Intro 2
Verso
Intro 2
Verso
Coro 2
Final---------Este final no lo pude sacar, ahi se
los dejo como ustedes lo sepan tocar.

            
            
Suggest correction
Creating personal tab
Creating personal tab
You can edit any tab online and save it as your Personal.

You can edit, replace or remove any tab part or add personal notes – all changes will be seen only by you.

Personal tabs can be accessed anytime from any device, even offline.
Learn more »
Give kudos to tab author, rate the tab!
1 2 3 4 5
comments
print report bad tab
guest
Wanna post a correction for this tab? Suggest correction