Oops, an error
Loading. Please wait.

Estático tab

version 1
version 1

Whole song

134 views 1 this week
no commentswrite comment
1 2 3 4 5
3 more votes to show rating
add to favorites
×
Save as Personal and add changes to this tab that will be seen only by you. Learn more ›
×
You can save this tab as Personal to edit and correct it or add notes. All changes will be seen only by you. Learn more »
launch autoscroll
font size
0
reset
how to read this tab
guitar tuner
edit
Autoscroll
slow
fast
+/-
esc
set tempo
stop
INTRO
aahhhhhh

VERSO
G                D
Es tan largo que no hay final
      B5                C5
sería fácil perder la razón
      G5          Bb5
justo antes de llegar
   A5
aahhhhhh
G                  D           
Lo que viene en un día más
       B5                C5
lo que falta por ver escapar
         G5         Bb5
siempre existe un lugar
   A5
aahhhhhh

PRE-CORO

  C       Em         F5
Pero se acaba pronto todo...

 volverá A     Em....pe....zar
-|-------------------------------------|-
-|-------------------------------------|-
-|----5-5-5--7-7-7--8-8-8--10-10-10----|-
-|----5-5-5--7-7-7--8-8-8--10-10-10----|-
-|----3-3-3--5-5-5--6-6-6--8--8--8-----|-
-|-------------------------------------|-

CORO

siempre me encuentro dando vueltas tan rápido
cuando en realidad permanesco estático

1er guitarra

   G5        Bb5       C                   C
-|-------------------------------------------------|-
-|---------------------1-1-1-1---4-4-4-4---1-1-1-1-|-
-|---------------------0-0-0-0---0-0-0-0---0-0-0-0-|-
-|-5-5-5-5---8-8-8-8---2-2-2-2---5-5-5-5---2-2-2-2-|-
-|-5-5-5-5---8-8-8-8---3-3-3-3---6-6-6-6---3-3-3-3-|-
-|-3-3-3-3---6-6-6-6---3-3-3-3---6-6-6-6---3-3-3-3-|-
                       (wah)     (wah)     (wah)

2da guitarra (hay que fijarse cuando se toca esta parte)

-|--------------------|-
-|--------------------|-
-|---/7---5---3-------|-
-|----------------5---|-
-|--------------------|-
-|--------------------|-

2do VERSO
G                   D
Nunca en mi vida pensé encontrar
     B5             C5
un momento de serenidad
      G5         Bb5
tu me diste algo más
   A5
aahhhhhh
G                 D
Con este ruido no puedo hablar
      B5                C5
se confunde con la realidad
        G5          Bb5
que si existe de verdad
   A5
aahhhhhh

PRE-CORO

C       Em         F5
Pero se acaba pronto todo...

 volverá A     Em....pe....zar
-|-------------------------------------|-
-|-------------------------------------|-
-|----5-5-5--7-7-7--8-8-8--10-10-10----|-
-|----5-5-5--7-7-7--8-8-8--10-10-10----|-
-|----3-3-3--5-5-5--6-6-6--8--8--8-----|-
-|-------------------------------------|-

2do CORO

siempre me encuentro dando vueltas tan rápido
cuando en realidad permanesco estático

1er guitarra

   G5        Bb5       C                   C
-|-------------------------------------------------|-
-|---------------------1-1-1-1---4-4-4-4---1-1-1-1-|-
-|---------------------0-0-0-0---0-0-0-0---0-0-0-0-|-
-|-5-5-5-5---8-8-8-8---2-2-2-2---5-5-5-5---2-2-2-2-|-
-|-5-5-5-5---8-8-8-8---3-3-3-3---6-6-6-6---3-3-3-3-|-
-|-3-3-3-3---6-6-6-6---3-3-3-3---6-6-6-6---3-3-3-3-|-
                       (wah)     (wah)     (wah)

2da guitarra

-|--------------------|-
-|--------------------|-
-|---/7---5---3-------|-
-|----------------5---|-
-|--------------------|-
-|--------------------|-

BRIDGE
G      D     C    G  
no necesitas todo
         D     C          G
puedes hacerlo con lo que hay
             D
por que al final
     C      
volverá a empezar
     G
volverá a empezar

3er CORO

siempre me encuentro dando vueltas tan rápido
cuando en realidad permanesco estático

1er guitarra

   G5        Bb5       C                   C
-|-------------------------------------------------|-
-|---------------------1-1-1-1---4-4-4-4---1-1-1-1-|-
-|---------------------0-0-0-0---0-0-0-0---0-0-0-0-|-
-|-5-5-5-5---8-8-8-8---2-2-2-2---5-5-5-5---2-2-2-2-|-
-|-5-5-5-5---8-8-8-8---3-3-3-3---6-6-6-6---3-3-3-3-|-
-|-3-3-3-3---6-6-6-6---3-3-3-3---6-6-6-6---3-3-3-3-|-
                       (wah)     (wah)     (wah)

2da guitarra

-|--------------------|-
-|--------------------|-
-|---/7---5---3-------|-
-|----------------5---|-
-|--------------------|-
-|--------------------|-

-|----------------------------------|--------------------------------------|-
-|----------------------------------|--------------------------------------|-
-|---/7-----0--3--5p--3--5/7--7--5--|---/10--8------------5-----5/7--7--5--|-
-|----------------------------------|-----------8---5--8-----8-------------|-
-|----------------------------------|--------------------------------------|-
-|----------------------------------|--------------------------------------|-

-|-----------------------------|--------------------------------------|-
-|-----------------------------|--------------------------------------|-
-|---------5-5/7---5/7---7--5--|---/10--8------------5-----5/7--7--5--|-
-|---5--8----------------------|-----------8---5--8-----8-------------|-
-|-----------------------------|--------------------------------------|-
-|-----------------------------|--------------------------------------|-

-|-------------------------------------|------------------------------------|-
-|-------------------------------------|------------------------------------|-
-|---0--3--5---0--3--5p--3--5/7--7--5--|-/10--8------------5-----5/7--7--5--|-
-|-------------------------------------|---------8---5--8-----8-------------|-
-|-------------------------------------|------------------------------------|-
-|-------------------------------------|------------------------------------|-

-|-----------------------------------------------------------------------|-
-|-----------------------------------------------------------------------|-
-|---0--3p--0----0--3p--0-----5/7--5--3-----6--6------6--0--3--5-5p--0---|-
-|---------------------------------------5-------------------------------|-
-|-----------------------------------------------------------------------|-
-|-----------------------------------------------------------------------|-

-|--------------------------------------------------------------------------|-
-|--------------------------------------------------------------------------|-
-|---0--3--5--3--5-5p---3----0--3--5-5p--3----0--3--5--5p--3----5--5--5--5--|-
-|--------------------------------------------------------------------------|-
-|--------------------------------------------------------------------------|-
-|--------------------------------------------------------------------------|-

-|--------------------------------------------------------------------------|-
-|--------------------------------------------------------------------------|-
-|---7---7-7--7-7--7-7--7-7--7-7--7-7--7-7--6---6-6-6-6-6-6-6-6-6-6-6-6-6---|-
-|--------------------------------------------------------------------------|-
-|--------------------------------------------------------------------------|-
-|--------------------------------------------------------------------------|-
                                  FINAL
-|-------------------------------|------|-
-|-------------------------------|------|-
-|--7-7-7-7-7-7-7-7-7-7-7-7-7-7--|--6---|-
-|-------------------------------|------|-
-|-------------------------------|------|-
-|-------------------------------|------|-

            
            
Suggest correction
Creating personal tab
Creating personal tab
You can edit any tab online and save it as your Personal.

You can edit, replace or remove any tab part or add personal notes – all changes will be seen only by you.

Personal tabs can be accessed anytime from any device, even offline.
Learn more »
Give kudos to tab author, rate the tab!
1 2 3 4 5
comments
print report bad tab
guest
Wanna post a correction for this tab? Suggest correction