Oops, an error
Loading. Please wait.

Estático tab

version 2
version 2

Whole song

86 views 1 this week
no commentswrite comment
1 2 3 4 5
3 more votes to show rating
add to favorites
×
Save as Personal and add changes to this tab that will be seen only by you. Learn more ›
×
You can save this tab as Personal to edit and correct it or add notes. All changes will be seen only by you. Learn more »
launch autoscroll
font size
0
reset
how to read this tab
guitar tuner
edit
Autoscroll
slow
fast
+/-
esc
set tempo
stop
Aqui nuevamente, aportando una rola mas de este grupo integrante de la avan-
zada regia quién más? Zurdok. La canción en esta ocasión es 'Estático' un 
poco olvidada ya, pero ahora espero que con esta versión en bajeo la desen-
polven de donde la tenian guardada.
Buena rola, buen disco, excelente grupo.
  ________
 *Estático*


 Intro:  AAAAAAAAAA

 'Es tan largo que no hay final...'
e|--------------------------------------------------------------------------|
B|--------------------------------------------------------------------------|
G|--------------------------------------------------------------------------|
D|----------0-0--7-7-7-7-0-0------------0-0-0--5--5-5-5-0----------0-0------|
A|--5-5-5-5-0-0--5-5-5-5-0-0--5-5-5-5-5-0-0-0--3--3-3-3-0--5-5-5-5-0-0------|
E|--3-3-3-3-0-0----------0-0--7-7-7-7-7-0-0-0-----------0--3-3-3-3-0-0------|
 
e|--------------|-----------------------|
B|--------------|-----------------------|
G|--------------|-----------------------|
D|--7-7-7-7-0-0-|--5---5--5--5--5--0-0--|
A|--5-5-5-5-0-0-|--3---3--3--3--3--0-0--| 

            
            
Suggest correction
Creating personal tab
Creating personal tab
You can edit any tab online and save it as your Personal.

You can edit, replace or remove any tab part or add personal notes – all changes will be seen only by you.

Personal tabs can be accessed anytime from any device, even offline.
Learn more »
Give kudos to tab author, rate the tab!
1 2 3 4 5
comments
print report bad tab
guest
Wanna post a correction for this tab? Suggest correction