Oops, an error
Loading. Please wait.

Mamá, Y Con Quién Duermes Hoy? tab

version 2
version 2

Whole song

7 views 1 this week
no commentswrite comment
1 2 3 4 5
3 more votes to show rating
add to favorites
×
Save as Personal and add changes to this tab that will be seen only by you. Learn more ›
×
You can save this tab as Personal to edit and correct it or add notes. All changes will be seen only by you. Learn more »
launch autoscroll
font size
0
reset
how to read this tab
guitar tuner
edit
Autoscroll
slow
fast
+/-
esc
set tempo
stop
¡¡¡¡¡¡¡¡¡¡what´s up carnales superfans de zurdok!!!!!!!!!!!!!!!!

Aqui estoy de nuevo tabulando unas canciones del mejor grupo de alternativo 
 tab se lo dedico a una amiga que tiene un problema igual a como
se llama la cancion...esta vez sera, del disco antena, la de:

'Mamá, ¿y con quien duermes hoy?'
por largallagher.

Acordes usados:
   E A D G B E
C  0 3 2 0 1 0
F  1 3 3 2 1 1
D# 6 6 8 8 8 6
C* 3 3 5 5 5 3
F* 8 8 D D D 8  D=10

Nota:Cuando toques el C, solo toca las cuerdas de E,A y D, lo mismo con F.
Cuando toques D#, solo toca las cuerdas de A, D y G, segun el ritmo de la rola.

 C
Cuando vas a llegar,
   F
temprano de trabajar,
   D#
temprnao de trabajar,
         F           C    F-D# (cambio rapido segun el ritmo d ela cancion)
estoy cansado de esperar

 C
Nunca haces de comer
   F  
no lavas la ropa tambien
   D#
no se que puedo hacer
        F             C   F-D# (cambio rapido segun......)
dime cuando vas a cambiar

 C              F           D#   F    
mama, ¿y con quien duermes hoy? (BIS)


Aqui, los siguientes versos son los mismos que los primeros,
asi que tocas lo mismo.

 C              F           D#   F
mama, ¿y con quien duermes hoy? (x3)

Solo

  C
e----------------------------|
b-5-5--3-3------------3-3-0--|
g-----------3-0-3-0-3--------|
d----------------------------|
a----------------------------|
E----------------------------|

   F                                          D#
e--------------------------------------------------------------------|
b--------------------------------------------------------------------|
g--------------------------------------------------------------------|
d---0-2-0-2-0-0----------2-0-2-0-2-0-2-0-0----0-0-2-0-2-0-2-0-4/9(x8)|
a--2------------2-0-2-0-2------------------2-0-----------------------|
E--------------------------------------------------------------------|

  C
e---------------------------|
b-5-5--3-3-----------3-3-0--|
g----------3-0-3-0-3--------|
d---------------------------|
a---------------------------|
E---------------------------|

   F                                            D#
e--------------------------------------------------------------------|
b--------------------------------------------------------------------|
g--------------------------------------------------------------------|
d---0-2-0-2-0-0----------2-0-2-0-2-0-2-0-0------0-0-2-0-2-0-2-0-4-4--|
a--2------------2-0-2-0-2------------------2-0-2---------------------|
E--------------------------------------------------------------------|

cont.  C   F

  C             F           D#   F
mama, ¿y con quien duermes hoy?                  fill 1

  C             F           D#   F con esto: B--3-0-3-3--|
mama, ¿y con quien duermes hoy?                    
                                                 fill 2
  C             F           D#   F con esto: B--3-3-3--|
mama, ¿y con quien duermes hoy?

Nota:ahora cambia la velocidad de la rola, entonces cuando toques C*,F* y D#,
solo debes tocar las cuerdas de A,D y G, segun el ritmo de la rola.

  C*            F*     D#    C*          
mama, ¿y con quien duermes hoy? 
       F*      D#    C*
¿con quien duermes hoy?

Cuando termina de cantar hace esto:

e---------------------|
b---------------------|
g--5-----10-----8-----|
d--5(x7)-10(x2)-8(x3)-|
a--3-----8------6-----|
E---------------------|

Luego, la guitarra toca sola, pero al ultimo hace esto:

e-------------------------------------|
b-------------------------------------|
g--5-----10-----8------5-----10-----8-|
d--5(x7)-10(x2)-8(x3)--5(x7)-10(x2)-8-|
a--3-----8------6------3-----8------6-|
E-------------------------------------|

¡¡¡¡¡¡¡¡Aqui acaba la rola!!!!!!!!!!!!!!!1
espero que les sirva, porque ustedes saben que soy principiante en esto pero muy bueno.

Dudas, correcciones, sugerencias, comentarios, mandenme un mail, odek?????

            
            
Suggest correction
Creating personal tab
Creating personal tab
You can edit any tab online and save it as your Personal.

You can edit, replace or remove any tab part or add personal notes – all changes will be seen only by you.

Personal tabs can be accessed anytime from any device, even offline.
Learn more »
Give kudos to tab author, rate the tab!
1 2 3 4 5
comments
print report bad tab
guest
Wanna post a correction for this tab? Suggest correction