Oops, an error
Loading. Please wait.

Si Me Advertí bass

version 1
version 1

Whole song

50 views 1 this week
no commentswrite comment
1 2 3 4 5
3 more votes to show rating
add to favorites
×
Save as Personal and add changes to this tab that will be seen only by you. Learn more ›
×
You can save this tab as Personal to edit and correct it or add notes. All changes will be seen only by you. Learn more »
launch autoscroll
font size
0
reset
guitar tuner
edit
Autoscroll
slow
fast
+/-
esc
set tempo
stop
por: Aldher Alejandro Ruelas Ramirez

 Mas o menos asi va, si le descubren algun otro detalle aganmelo saber,
este tab es muy parecido (o igual) a como esta en la cancion.
Quejas y sugerencias escriban a blackblinder@

Afinacion estandar E A D G

VERSOS:

G-----------------------------------------------|
D-----------------------------------------------|
A-----------------------------------------------|
E--0--4--0-4-0-5--0-4-5-0--0--0-4-0-5--0-4-5-0--|

G-----------------------------------------------|
D-----------------------------------------------|
A-----------------------------------------5-----|
E--0--0-3-0-5--0-3-5-0--0--0-3-0-5--0-3-5-------|

G-----------------------------------------------|
D-----------------------------------------------|
A--5-5-5----------------------------------------|
E---------5-6-7--7-7-7--------------------------|


G-----------------------------------------------|
D-----------------------------------------------|
A-----------------------------------------------|
E--0--4--0-4-0-5--0-4-5-0--0--0-4-0-5--0-4-5-0--|

G-----------------------------------------------|
D-----------------------------------------------|
A-----------------------------------------5-----|
E--0--0-3-0-5--0-3-5-0--0--0-3-0-5--0-3-5-------|

G-----------------------------------------------|
D----------------------7h9----------------------|
A----5--5--------5-7h9-----9\\\\\\\-------------|
E--7---7---5-6-7--------------------------------|


CORO:

G-----------------------------------------------|
D-----------------------------------------------|
A-----------------------------------------------|
E--7--7-7--5--5-5-5\-0--0-2-3-3-3---------------|

Con practica y escuchando la version original de la 
canción van a obtener el ritmo del bajo.... see ya...

            
            
Suggest correction
Creating personal tab
Creating personal tab
You can edit any tab online and save it as your Personal.

You can edit, replace or remove any tab part or add personal notes – all changes will be seen only by you.

Personal tabs can be accessed anytime from any device, even offline.
Learn more »
Give kudos to tab author, rate the tab!
1 2 3 4 5
comments
print report bad tab
guest
Wanna post a correction for this tab? Suggest correction