Oops, an error
Loading. Please wait.

Si Me Advertí bass

version 2
version 2

Whole song

188 views 3 this week
no commentswrite comment
1 2 3 4 5
3 more votes to show rating
add to favorites
×
Save as Personal and add changes to this tab that will be seen only by you. Learn more ›
×
You can save this tab as Personal to edit and correct it or add notes. All changes will be seen only by you. Learn more »
launch autoscroll
font size
0
reset
guitar tuner
edit
Autoscroll
slow
fast
+/-
esc
set tempo
stop
Bueno señorones...ya estoy de vacaciones asi ke me pude dar tiempo pa' sacar esta rola ke tenìa rato de kerer hacerlo...
por ke cheke las otra versiones...y no me gustaron....
mhmhm....aki vamos---(entren a la pag de mi  gratis ja jaja
--------------------------------------------------------------------------------------------------------------------
las 'x' chicas significan que muteas (apagas) una nota--------------------\
                                                                           na'mas pa ke no se konfundan
las 'X' grandes es el numero de veces que vas a hacer lo que dice atras---/
----------------------------------------------------------------------------------------------------------------------------

Verso 1
G|----------------------------------------|-----------------------------------------------------------|
D|-------------------------------------X3-|-----------------------------------------------------------|
A|-----------------7----5--7----5-7-------|------7---5-7--7-5-----5-5----5----5-----------------------|
E|-------------0-0----0--0----x-----------|--0-0----x--------7----------7---7-----5-6-7-7--x-5h7-7--|
  'si me adverti...'                         '......y asi ya no..caer................tanto....'  |       
                                                                                                 |-este arreglo cambia
                                                                                                 |por el de abajo (2da estro)
Verso 2-.----------------------------------------------------------------------------------------|
G|--------------------|
D|---------7h9--------|
A|-----7h9-----9--5h7-|
E|--------------------|
  '....juntos...'

-------------------------------------------------------------------------------------------------------------------------
 Coro 1--EL CORO TIENE UN BIEN DE ARREGLOS QUE NO PUDE SACAR, POR EL DISTOR DE LA LIRA, AY ESTAN LOS QUE SI ESCHUCHE
         (O INVENTE JE)---son los que estan entre 

G|-----------------------------------------------------|-------|
D|---------------0h2-2----0h2----------0------X4-|-------|
A|--2--2-2-0-000-----------------------0h2-----0-----|--2..--|
E|-----------------------0-O-----2-3-33----------------|-------|

Pues que mal que no lo vez
A un lado me puedes tener
Y sigo aqui pensando en ti
Y en todo lo que te di
                                                    
------------------------------------------------------------------------------------------------------------------------
                                            
Verso 3 y 4.- Sigue exactamente la misma secuencia

si me adverti
que el error te hace crecer
cuantos debo cometer
dime

Y si no està en mi
què tan cerca estoy de ti
lo que busques aquì esta
cuàndo

------------------------------------------------------------------------------------------------------------------------

Coro 2...y....muchos coros mas kon una ke otra variacion...simplesonas.
Coros 3,4,5,6,7 a medias

------------------------------------------------------------------------------------------------------------------------
 AKI YA SE AKABO EL BASS

 Debo ver para saber 
 Que hiciste para seguir
 Y vivir con el placer
 De mentir y mentir

-------------------------------------------------------------------------------------------------------------------------

Y aki esta....ya akabamos....esta bien cortilla...pero traten de meterle los arreglos porke es lo ke le da sabor al bajo...y si 
sakan mas...ay se los pasan a 
                               el_ojeda25@
 
....si necesitan algun bajeo tambien emilienme por fa, pa' desempolvar un poko el oido....sobrex...ay se ven
                                                                                              20 de Diciembre 2002

            
            
Suggest correction
Creating personal tab
Creating personal tab
You can edit any tab online and save it as your Personal.

You can edit, replace or remove any tab part or add personal notes – all changes will be seen only by you.

Personal tabs can be accessed anytime from any device, even offline.
Learn more »
Give kudos to tab author, rate the tab!
1 2 3 4 5
comments
print report bad tab
guest
Wanna post a correction for this tab? Suggest correction