Oops, an error
Loading. Please wait.

Si Me Hablas Al Revés tab

64 views 3 this week
no commentswrite comment
1 2 3 4 5
3 more votes to show rating
add to favorites
×
Save as Personal and add changes to this tab that will be seen only by you. Learn more ›
×
You can save this tab as Personal to edit and correct it or add notes. All changes will be seen only by you. Learn more »
launch autoscroll
font size
0
reset
how to read this tab
guitar tuner
edit
Autoscroll
slow
fast
+/-
esc
set tempo
stop
Guitarra 1
Riff 1 (limpia)

e-----------------------------------------------------------
B-----------------------------------------------------------
G---.-4b5r4---------5p4---------4b5r4---------5p4---------.-
D-5-.-------5-----5-----5b~7~r5-------5-----5-----5b~7~r5-.-
A-------------3h5-----------------------3h5-----------------
E-----------------------------------------------------------

Guitarra 2
Afinación: Dropp D (la sexta cuerda en re)
Riff 2 (entra cuando la guitarra 1 toca La# por segunda vez)

e----------------|------------------------------------------
B----------------|------------------------------------------
G------5555------|-----------5555---------3333--------------
D-3333-5555-5555-|-x3---3333-5555-555-3-5-3333-5-3----------
A-3333-3333-5555-|------3333-3333-555-3-5-1111-5-3----------
D-3333------5555-|------3333------555-3-5------5-3----------
  limpia                          c/distrosión

Guitarra 2
Afinación: Dropp D (la sexta cuerda en re)
Riff 3 (con distorsión)

e------------------------|----------------------------------
B------------------------|----------------------------------
G------------------------|----------------------------------
D-3/5-5--3/5-5--3/5-5--1-|-X4---1/3-5-----------------------
A-3/5-5--3/5-5--3/5-5--1-|------1/3-5-----------------------
D-3/5-5--3/5-5--3/5-5--1-|------1/3-5-----------------------

Guitarra 3
solo (probablemente usa el flanger o el phaser como efecto)
-no pude sacar esta parte, disculpen-

Guitarra 2
Riff 4 (durante el solo, con distorsión)

e---------------------------|-------------------------------
B---------------------------|-------------------------------
G-.-------------------------|-----------------------------.-
D-.-------------------------|-X3--------------------------.-
A---0-2b3r2-0---------------|------0-2b3r2------------------
D-------------0h1h2h3p2p1p0-|--------------0h1h2h3p2-2------

Riff 5 (con distorsión)
e---------------------|-------------------------------------
B---------------------|-------------------------------------
G---------------------|-------------------------------------
D-111/2-3333-55555555-|-X3---111/2-3333-5-------------------
A-111/2-3333-55555555-|------111/2-3333-5-------------------
E-111/2-3333-55555555-|------111/2-3333-5-------------------
                
Guitarra 1
Riff 1 (entra cuando la guitarra 2 toca La# en el Riff 5)

e-----------------------------------------------------------
B-----------------------------------------------------------
G---.-4b5r4---------5p4---------4b5r4---------5p4---------.-
D-5-.-------5-----5-----5b~7~r5-------5-----5-----5b~7~r5-.-
A-------------3h5-----------------------3h5-----------------
E-----------------------------------------------------------

Guitarra 2
Riff 6 (al final de la rola, con distorsión)

e----------------------|------------------------------------
B----------------------|------------------------------------
G----------------/5555-|---------------------/5-------------
D-5555-3333-1111-/5555-|-X3---5555-3333-1111-/5-------------
A-5555-3333-1111-/3333-|------5555-3333-1111-/3-------------
D-5555-3333-1111-------|------5555-3333-1111----------------

Sugerencias, peticiones, correcciones... serán bienvenidas 
en mi correo, sobre todo si alguien saca el solo de la rola.

            
            
Suggest correction
Creating personal tab
Creating personal tab
You can edit any tab online and save it as your Personal.

You can edit, replace or remove any tab part or add personal notes – all changes will be seen only by you.

Personal tabs can be accessed anytime from any device, even offline.
Learn more »
Give kudos to tab author, rate the tab!
1 2 3 4 5
comments
print report bad tab
guest
Wanna post a correction for this tab? Suggest correction