Oops, an error
Loading. Please wait.

Tropecé bass

25 views 1 this week
no commentswrite comment
1 2 3 4 5
3 more votes to show rating
add to favorites
×
Save as Personal and add changes to this tab that will be seen only by you. Learn more ›
×
You can save this tab as Personal to edit and correct it or add notes. All changes will be seen only by you. Learn more »
launch autoscroll
font size
0
reset
guitar tuner
edit
Autoscroll
slow
fast
+/-
esc
set tempo
stop
ZURDOK
Tropecé


 Intro
G-----------
D-----------
A-----------
D---3/113--

1er VERSO
G----------------------------------------------
D----------------------------------------------
A----------------------------------------------  x3
D---3-3-3-----10-10-10-----12-12-12-----8-8-8--

G---------------------------------------
D---------------------------------------
A---------------------------------------
D---3-3-3----10-10-10----12-12-12--10---

2do VERSO
G----------------------------------------------
D----------------------------------------------
A----------------------------------------------  x3
D---4-4-4-----11-11-11-----13-13-13-----9-9-9--

G--------------------------------------
D--------------------------------------
A--------------------------------------
D---4-4-4----11-11-11----12-12-12--10--


1er Coro (Para que alegar...)
G---------------------------------------
D---------------------------------------
A--6--6-6-6----------3--3-3-3-----------
D-----------5--5-5-5----------1--1-1-1--

          (Oh, es verdad y ya lo se)
G------------------------------------------
D------------------------------------------
A------------------------------------------
D---6--6-6-6--4--4-4-4--6--6-6-6--6-6-6-6--


2do Coro (Para que alegar...)
G-------------------------------------------
D-------------------------------------------
A--10--10-10-10----------7--7-7-7-----------
D---------------9--9-9-9----------5--5-5-5--

          (Oh, es verdad y ya lo se)
G--------------------------------------------------------
D--------------------------------------------------------
A--------------------------------------------------------
D---10--10-10-10--8--8-8-8-8--10--10-10-10--10-10-10-10--


 Cambio (cuando comienzan el segundo verso, se
         hace un slapping o tócalo rápido)

G--------------------------------------------
D--------------------------------------------
A--------------------------------------------
D--4-----4-4------11-11------13-13-----9-9---


Riff 1 (cuando se oye un gran slide y solamente
         repite "Tropecé!")
G----------------------------------
D----------------------------------
A----------------------------------
D--5--5-5-5-5-/14--3-3-3-3-3-3-3-3-


Riff 2 (Solo)

G----------------------------------------------
D----------------------------------------------
A------------------------------------------2---
D--5-5-5-/9--9-9-9-/14--14-14-14-/5--5--0-5-5--

G-----------------------------------------------------
D-----------------------------------------------------
A-----------------------------------------------------
D--10-10-10-8--8-8-8-10-10--10-10-10--10-10-10-10-10--

ESTRUCTURA
Intro     x1
1er Verso x1
1er Coro  x1
Cambio    x1
2do Verso x1
2do Coro  x1
Riff 1    x6
Riff 2    x2
Riff 1    x5

Toda la rola lleva un distortion u overdrive en el bass.
Gracias al monobot por su colaboracion.
Suggest correction
Creating personal tab
Creating personal tab
You can edit any tab online and save it as your Personal.

You can edit, replace or remove any tab part or add personal notes – all changes will be seen only by you.

Personal tabs can be accessed anytime from any device, even offline.
Learn more »
Give kudos to tab author, rate the tab!
1 2 3 4 5
comments
print report bad tab
guest
Wanna post a correction for this tab? Suggest correction