Oops, an error
Loading. Please wait.

Selección De Cullahuadas tab

by Kachas
124 views 1 this week
no commentswrite comment
1 2 3 4 5
3 more votes to show rating
add to favorites
×
Save as Personal and add changes to this tab that will be seen only by you. Learn more ›
×
You can save this tab as Personal to edit and correct it or add notes. All changes will be seen only by you. Learn more »
launch autoscroll
font size
0
reset
how to read this tab
guitar tuner
edit
Autoscroll
slow
fast
+/-
esc
set tempo
stop
Hay les va este tema a los que me lo pidieron esta en mim... :)

Intro.
La Guitarra:
  MIm         SI7                      MIm
e ------------------------------------------
B ------------------------------------------
G ------------------------------------------
D -------2----------------------------------
A -----2---2--3-2-0--------0-----0-----2-0--
E -0-3--------------3-2--2---3-2---3-2------

  MIm         SI7
e ---------------------------------------
B ---------------------------------------
G ---------------------------------------
D -------2-------------------------------    Mim Mim
A -----2---2--3-2-0------2-3-2-0---------
E -0-3--------------3-2----------3-2-0---

El Charango:
  MIm         SI7                      MIm
e -------0----------------------------------
A -----2---2--3-2-0--------0-----0-----2-0--
E -0-3--------------3-2--2---3-2---3-2------
C ------------------------------------------
G ------------------------------------------

  MIm         SI7
e -------0------------------------------
A -----2---2--3-2-0------2-3-2-0--------
E -0-3--------------3-2----------3-2-0--   Mim Mim
C --------------------------------------
G --------------------------------------


MIm                DO       RE7      SOL 
Quisiera decirte adiós no puedo no puedo    [x2]
LAm              SOL       SI7       MIm
El efecto de tu amor me tiene cautivado     [x2]

MIm                DO       RE7      SOL 
Quisiera decirte adiós no puedo no puedo    [x2]
LAm              SOL       SI7       MIm
El efecto de tu amor me tiene cautivado     [x2]

En la quena es lo mismo que el intro y la letra..!
hay viene el enganche con el otro tema y los acordes
de la quena son los mismos de la letra!

MIm             DO             RE7                 SOL 
Por esos ojitos negros mi amor mi vida yo te puedo dar
LAm         SOL          SI7                   MIm
Y tu mirada y tu sonrisa no no no no podré olvidar

MIm          SI7                      MIm
En una tarde te conocí y en esa tarde me enamore
MIm          SI7                                       MIm MIm
Y tus ojitos como el carbón me han robado el corazón


Los acordes de la quena son los mismos de la letra!


DO                               RE7      SOL 
Acaso por que soy pobre tu no me vas a querer   [x2]
DO       SOL               SI7          MIm
Eso esta mal que no me quieras mi dulce miel    [x2]

DO                                  RE7       SOL 
Los besos que tú me diste nunca los voy a olvidar
DO                                  RE7     SOL 
Y aquellas caricias tuyas que tu me supiste dar
DO       SOL               SI7          MIm
Eso esta mal que no me quieras mi dulce miel    [x2]

MI7                LAm     RE7           SOL 
Tu también vas a sufrir tu también vas a llorar
MI7             LAm                 SI7                       MIm MIm
y algún día pagaras todo lo que has hecho con mi pobre corazón

Cualquier duda o sugerencia me la hacen llegar a mi
correo x0_Kenneth_0x@
Suggest correction
Creating personal tab
Creating personal tab
You can edit any tab online and save it as your Personal.

You can edit, replace or remove any tab part or add personal notes – all changes will be seen only by you.

Personal tabs can be accessed anytime from any device, even offline.
Learn more »
Give kudos to tab author, rate the tab!
1 2 3 4 5
comments
print report bad tab
guest
Wanna post a correction for this tab? Suggest correction