Oops, an error
Loading. Please wait.

Oración Del Pobre tab

by Kairoi
40 views 3 this week
no commentswrite comment
1 2 3 4 5
3 more votes to show rating
add to favorites
×
Save as Personal and add changes to this tab that will be seen only by you. Learn more ›
×
You can save this tab as Personal to edit and correct it or add notes. All changes will be seen only by you. Learn more »
launch autoscroll
font size
0
reset
how to read this tab
guitar tuner
edit
Autoscroll
slow
fast
+/-
esc
set tempo
stop
INTRO
     Em       C   D   G                           Am            Em
e)---0-000----3---5---7--7----7--10--7--3--5------7--5--3--0--3-3-
B)----------------------------------------------------------------
G)----------------------------------------------------------------
D)----------------------------------------------------------------
A)----------------------------------------------------------------
E)----------------------------------------------------------------

    B7                 Em
e)--0--3--5--3--0-------------------------------------------------
B)-----------------3---5------------------------------------------
G)----------------------------------------------------------------
D)----------------------------------------------------------------
A)----------------------------------------------------------------
E)----------------------------------------------------------------

 se escucha mejor con dos guittaras ya que podes tocar el intro
 el comensar a cantar la estrofa


 Em             C  D G   Am    Em     B7    Em
 Vengo ante Ti, mi Señor,reconociendo mi culpa,
 C         D            G    Am        Em            B7 E
 con la fe puesta en tu amor,que tu me das como a un hijo.
 Em         C D G          C      D      G
 Te abro mi corazón, y te ofrezco mi miseria,
      Am          Em      B7                 Em
 despojado de mis cosas,  quiero llenarme de Ti.

 CORO
 E                  B7     A             E
 Que tu espíritu, Señor,  abrase todo mi ser.
 E                B7        A     B7        E     E7
 Hazme dócil a tu voz, Transforma mi vida entera.
 A                E   C#m     A     B7        E
 Hazme dócil a tu voz    Transforma mi vida entera.


 Puesto en tus manos, Señor, siento que soy pobre y débil,
 más tú me quieres así, yo te bendigo y te alabo
 Padre, en mi debilidad, tú me das la fortaleza.
 Amas al hombre sencillo, le das tu paz y perdón.

 CORO


 esto se toca el final del coro y con las mismas notas  del coro


 e)--12--12-12-12-12-12-11---11-9-9--12-11-9-7---------------------
 B)----------------------------------------------------------------
 G)----------------------------------------------------------------
 D)----------------------------------------------------------------
 A)----------------------------------------------------------------
 E)----------------------------------------------------------------


 e)--5-5-777-5-3--3-2-2-0-2-3-s-5-s-7v-----------------------------
 B)----------------------------------------------------------------
 G)----------------------------------------------------------------
 D)----------------------------------------------------------------
 A)----------------------------------------------------------------
 E)----------------------------------------------------------------


 e)--12--12-11-12-11-9-s7---7s-5s-5-3-2--2--0----------------------
 B)----------------------------------------------------------------
 G)----------------------------------------------------------------
 D)----------------------------------------------------------------
 A)----------------------------------------------------------------
 E)----------------------------------------------------------------


 mejor si tenes el audio si no lo tenes escribime
 ahi arriba esta mi correo .  BUENA SUERTE

            
            
Suggest correction
Creating personal tab
Creating personal tab
You can edit any tab online and save it as your Personal.

You can edit, replace or remove any tab part or add personal notes – all changes will be seen only by you.

Personal tabs can be accessed anytime from any device, even offline.
Learn more »
Give kudos to tab author, rate the tab!
1 2 3 4 5
comments
print report bad tab
guest
Wanna post a correction for this tab? Suggest correction