Oops, an error
Loading. Please wait.

Tú Eres Del Señor tab

by Kairoi
253 views 3 this week
no commentswrite comment
1 2 3 4 5
3 more votes to show rating
add to favorites
×
Save as Personal and add changes to this tab that will be seen only by you. Learn more ›
×
You can save this tab as Personal to edit and correct it or add notes. All changes will be seen only by you. Learn more »
launch autoscroll
font size
0
reset
how to read this tab
guitar tuner
edit
Autoscroll
slow
fast
+/-
esc
set tempo
stop
Bueno hermanos mios, les dejo esta hermosa cancion de Kairoi
para nuestra queridisima Madre, María.


INTRO:
   C F    C F    C        A G F G     C F    C F    C        A G E F
e----------------------------------|---------------------------------|
B----5/6----5/6----------10-8-6-8--|----5/6----5/6----------10-8-5-6-|
G--5------5------5-5-5-------------|--5------5------5-5-5------------|
D----------------------------------|---------------------------------|
A----------------------------------|---------------------------------|
E----------------------------------|---------------------------------|

  F                     C
Eres tan sencilla como luz de amanecer
 Dm                 Am
Eres tu María fortaleza de mi fe
 Bb            F
Tu eres flor, eres del Señor
   Gm                     C
Te dejas acariciar por su amor

  F                     C
Eres tan humilde com el vuelo de un gorrión
 Dm                 Am
eres tu María el regazo del amor.
 Bb            F
Tu eres flor, eres del Señor
   Gm                     C
te dejas acariciar por su amor.


CORO
 Dm        Bb
Yo quiero estar
Gm       Bb          F         Dm
En las manos del Señor, como tu,
        Bb    Gm       Bb       F
Para amar, en las manos del Señor,
      Dm       C         F
Como tu, como tu, como tu.


   C F    C F    C        A G F G     C F    C F    C        A G E F
e----------------------------------|---------------------------------|
B----5/6----5/6----------10-8-6-8--|----5/6----5/6----------10-8-5-6-|
G--5------5------5-5-5-------------|--5------5------5-5-5------------|
D----------------------------------|---------------------------------|
A----------------------------------|---------------------------------|
E----------------------------------|---------------------------------|

  F                     C
Eres tan pequeña como el canto de mi voz,
 Dm                 Am
Eres la grandeza de aquel que te modelo.
 Bb            F
Tu eres flor, eres del Señor
   Gm                     C
Te dejas acariciar por su amor

  F                     C
Eres tan hermosa como el cielo, como el mar
 Dm                 Am
eres tu María como el gozo de soñar.
 Bb            F
Tu eres flor, eres del Señor
   Gm                     C
te dejas acariciar por su amor.


CORO
 Dm        Bb
Yo quiero estar
Gm       Bb          F         Dm
En las manos del Señor, como tu,
        Bb    Gm       Bb       F
Para amar, en las manos del Señor,
      Dm       C         F
Como tu, como tu, como tu.

 Dm        Bb
Yo quiero estar
Gm       Bb          F         Dm
En las manos del Señor, como tu,
        Bb    Gm       Bb       F
Para amar, en las manos del Señor,
      Dm       C         F
Como tu, como tu, como tu.

   C F    C F    C        A G F G     C F    C F    C        A G E F
e----------------------------------|---------------------------------|
B----5/6----5/6----------10-8-6-8--|----5/6----5/6----------10-8-5-6-|
G--5------5------5-5-5-------------|--5------5------5-5-5------------|
D----------------------------------|---------------------------------|
A----------------------------------|---------------------------------|
E----------------------------------|---------------------------------|


Si tienen alguna duda contactenme atravez de mi correo
joguolco_cafloma@ Que la paz del señor nos llene a todos.

"Señor,
a ti te entrego mis manos,
a ti te entrego mi voz,
haz de ellas un instrumento de tu amor"

            
            
Suggest correction
Creating personal tab
Creating personal tab
You can edit any tab online and save it as your Personal.

You can edit, replace or remove any tab part or add personal notes – all changes will be seen only by you.

Personal tabs can be accessed anytime from any device, even offline.
Learn more »
Give kudos to tab author, rate the tab!
1 2 3 4 5
comments
print report bad tab
guest
Wanna post a correction for this tab? Suggest correction