Oops, an error
Loading. Please wait.

Olvídame chords

by Kalimba
19 views 3 this week
no commentswrite comment
1 2 3 4 5
3 more votes to show rating
add to favorites
×
Save as Personal and add changes to this tab that will be seen only by you. Learn more ›
×
You can save this tab as Personal to edit and correct it or add notes. All changes will be seen only by you. Learn more »
launch autoscroll
font size
0
reset
transpose
0
reset
simplify chords
display chords
guitar tuner
edit
Autoscroll
slow
fast
+/-
esc
set tempo
stop
Strumming
There is no strumming pattern for this song yet. and get +5 IQ

Bb         Dm   Gm    D#         F
Olvídame, olvídame, ya no quiero llorar
  Bb        Dm       Gm             F
olvídame, olvídame, ya no quiero llorar


Piano ( Cm, Bb) x 2

 D#       F          Bb
Tuve un amor sin defectos,
 D#       F          Bb
era perfecto era amor de verdad
 D#          F         Bb  /  Gm
Siempre de acuerdo, nada por arreglar
 Cm                    D#        F           Bb
no quería perderlo, quería guardarlo por siempre
  D#         F        Bb
quería que fuera mi amor sin final
  D#         F          Bb      D#
y mientras tanto me olvidaba de amar
  Cm                 F
harta de esperarme te vas

 Bb         Cm
Llorar duele más
 Gm                     D#            F
cuando se que fui yo el que nunca entendio
 Bb           Cm                Gm
llorar duele más ya que se que soy la razón
      D#        D
de lo que nos pasó
       Gm         Gm1        Gm2  C7
por no ver que tu eras mas real que un amor
  Cm                                   D#
y querer que sintieras lo que nunca existió


Piano (Cm, Bb) x 2


  D#     F        Bb
Tuve un amor imperfecto
  D#       F          Bb
con sus defectos de amor de verdad
  D#        F         Bb     D#
y yo y mi miedo lo dejamos pasar
    Cm                    F
ahora que lo entiendo te vas

 Bb         Cm
Llorar duele más
 Gm                     D#            F
cuando se que fui yo el que nunca entendio
 Bb           Cm                Gm
llorar duele más ya que se que soy la razón
      D#        D
de lo que nos pasó
        Gm         Gm1
y ahora se que te amé
          Gm2            C7
me doy cuenta y ya no te tendré
     Cm   D#/F    G
pues ya te vas

   C        Dm
Llorar duele más
        Am                    F        G
cuando se que fui yo el que nunca entendió
    C         Dm         Am
llorar duele más ya que se que soy la razón
       F        E7
de lo que nos pasó
       Am              Am1
y el dolor tendré que soportar
              Am2     D7
¿por cuanto tiempo más? uhhh
              F                  G
¿por qué te alejas? hoy que me dejas mi amor


Piano (Dm, C)

Dm, F, G

C,           Em,       F, G, C
Olvídame, olvídame

Bb                       Dm
||--1------           ||--1----
||------3--           ||------3
||------3--           ||----2--
||------3--           ||-------
||--1------           ||-------
||--1------           ||-------

Gm                    D#
||-----3---         ||-----6----
||-----3---         ||--------8-
||-----3---         ||--------8-
||-------5-         ||--------8-
||-------5-         ||-----6----
||-----3---         ||-----6----

  F                      Cm
||--1----             ||----3----
||--1----             ||------4--
||----2--             ||--------5
||------3             ||--------5
||------3             ||----3----
||--1----             ||----3----

D                     Gm1
||-----2---         ||-----3---
||-------3-         ||-----3---
||-----2---         ||-----3---
||---------         ||------4--
||---------         ||-------5-
||---------         ||-----3---

   Gm2                      C7
||------3----         ||----3----
||------3----         ||--------5
||------3----         ||----3----
||------3----         ||--------5
||----------5         ||----3----
||------3----         ||----3----

C                        Am
||---------          ||---------
||--1------          ||--1------
||---------          ||----2----
||----2----          ||----2----
||------3--          ||---------
||---------          ||---------

      G                     E7
||------3---          ||----------
||------3---          ||----------
||----------          ||--1-------
||----------          ||----------
||----2-----          ||----2-----
||------3---          ||----------

Am1              Am2
||-----5----    ||-----5----
||-----5----    ||-----5----
||-----5----    ||-----5----
||-------6--    ||--------7-
||--------7-    ||-----5----
||-----5----    ||-----5----

         D7                 Em
||----------5------   ||---------
||--------------7--   ||---------
||----------5------   ||---------
||--------------7--   ||----2----
||----------5------   ||----2----
||----------5------   ||---------
Suggest correction
Creating personal tab
Creating personal tab
You can edit any tab online and save it as your Personal.

You can edit, replace or remove any tab part or add personal notes – all changes will be seen only by you.

Personal tabs can be accessed anytime from any device, even offline.
Learn more »
Give kudos to tab author, rate the tab!
1 2 3 4 5
comments
print report bad tab
guest
Wanna post a correction for this tab? Suggest correction