Oops, an error
Loading. Please wait.

Desamor Diplomático tab

62 views 3 this week
no commentswrite comment
1 2 3 4 5
3 more votes to show rating
add to favorites
×
Save as Personal and add changes to this tab that will be seen only by you. Learn more ›
×
You can save this tab as Personal to edit and correct it or add notes. All changes will be seen only by you. Learn more »
launch autoscroll
font size
0
reset
how to read this tab
guitar tuner
edit
Autoscroll
slow
fast
+/-
esc
set tempo
stop
Intro:

Sobre: Bm - E

E:-----------------------|  E:-----------------------|
B:-7-5-3-2--0-2-3-5------|  B:-7-5-3-2--0-2-3-5------|
G:-6-4-2-1--2-4-4-6------|  G:-6-4-2-1--2-4-4-6------|
D:-----------------------|  D:-----------------------|
A:-----------------------|  A:-----------------------|
E:-----------------------|  E:-----------------------|

                            E:--5^7-5---5-7^9-7--5-5-5^7---|
                            B:--------7--------------------|
                            G:-----------------------------|
                            D:-----------------------------|
                            A:-----------------------------|
                            E:-----------------------------|


E:-----------------------------------------------------|
B:-5-3-2-3-5--5-3-2-3--5-3-2-3-5--5555-3333-2222-0000--|
G:-----------------------------------------------------|
D:-----------------------------------------------------|
A:-----------------------------------------------------|
E:-----------------------------------------------------|  X2


Bm
En apariencia,
te irrita mi presencia
                 E
recurres a la ciencia
para que saque de tu piel mi escencia
                                Bm
por que no quieres ya vibrar conmigo
no crees en lo que digo
                   E
no estas segura conmigo
te insitan tus amigos

Estribillo:

Bm
a un desamor diplomatico
por que soy un lunatico
          E
a un desamor diplomatico
por que soy un lunatico

           Bm
yo quiero verte
y en mis brazos tenerte
                 E
solo tengo un presente
para amarte y para sostenerte
                            Bm
y aunque quieras embartirme vivo
que todavia estas conmigo
                      E
yo solo un beso te pido
y hoy solo recibo

Estribillo:

tu desamor diplomatico
por que soy un lunatico
tu desamor diplomatico
por que soy un lunatico

       Bm
no no no, no me digas que no sabes baby
                          E
no me digas que no sabes baby
no me digas que no sabes baby

               Bm
que hoy quiero, hoy quiero,
                   E
hoy quiero descansar
de nuestras guerras     X2


E:-5^7-5^7^5---5----5-7-------------------0-------0------------------|
B:-----------7----7-----5-5-3-3-5-5-----3-------3--------3-5^7-3-----|
G:----------------------------------2-4-----2-4------2-4-------------|
D:-------------------------------------------------------------------|
A:-------------------------------------------------------------------|
E:-------------------------------------------------------------------|

E:-----------------------------------------------------|
B:-5-3-2-3-5--5-3-2-3--5-3-2-3-5--5555-3333-2222-0000--|
G:-----------------------------------------------------|
D:-----------------------------------------------------|
A:-----------------------------------------------------|
E:-----------------------------------------------------|


En apariencia...

Estribillo

yo quiero verte...

Estribillo

no no no, no me digas que no sabes baby...

que hoy quiero, hoy quiero...X2

Solo:  Bm - E

E:---5-7-10--975---5-5^7----------------------------------------
B:-7-------------7-------5-7-5--3-5-5-5-3-5-3--------3-3-3-3^5--
G:---------------------------------------------2-4-2------------
D:--------------------------------------------------------------
A:--------------------------------------------------------------
E:--------------------------------------------------------------

E:---------------------------------------------------------------|
B:-----3-5------3-5^7-10-10-10-----7^10-10-10-7-10^12-10-10-10---|
G:-2-4------2-4----------------9-7-------------------------------|
D:---------------------------------------------------------------|
A:---------------------------------------------------------------|
E:---------------------------------------------------------------|

E:-5-7-10-7-10-7-12-12^14-10-10-10-10-12-10--10-7-10-10--79109-79107-
B:-------------------------------------------------------------------
G:-------------------------------------------------------------------
D:-------------------------------------------------------------------
A:-------------------------------------------------------------------
E:-------------------------------------------------------------------

E:-2-4-5-4-2-4-5-4-0-----------------5--10^12-10^12-------|
B:-------------------3-0-3-5-3-5-5^7----------------------|
G:--------------------------------------------------------|
D:--------------------------------------------------------|
A:--------------------------------------------------------|
E:--------------------------------------------------------|

Saxo:

E:--------------------------------------|
B:--------------------------------------|
G:-2^9-7-6-7-9-7^9-7-6-7--6^7-6---7-6---|
D:------------------------------7-------|
A:--------------------------------------|
E:--------------------------------------|

Teclado:

E:---5-7----5-7-5-----------------------------------------------|
B:-7------7-------7-5-3---5-----3------3---5^6^5---3-5----pausa-|
G:--------------------------4-4---4--4---4-------4-----4---0:05-|
D:--------------------------------------------------------------|
A:--------------------------------------------------------------|
E:--------------------------------------------------------------|

E:---------------------------------------7-9-10--7-9-10------|
B:---3-5-5-5-3-5-7-------3-5-5-5-3-5-7---7-9-10--7-9-10------|
G:-4---------------4---4-------------------------------------|
D:-----------------------------------------------------------|
A:-----------------------------------------------------------|
E:-----------------------------------------------------------|

Estribillo   X2


Fin: Bm - E

E:-----------------------------------------------------|
B:-5-3-2-3-5--5-3-2-3--5-3-2-3-5--5555-3333-2222-0000--|
G:-----------------------------------------------------|
D:-----------------------------------------------------|
A:-----------------------------------------------------|
E:-----------------------------------------------------| X4
Suggest correction
Creating personal tab
Creating personal tab
You can edit any tab online and save it as your Personal.

You can edit, replace or remove any tab part or add personal notes – all changes will be seen only by you.

Personal tabs can be accessed anytime from any device, even offline.
Learn more »
Give kudos to tab author, rate the tab!
1 2 3 4 5
comments
print report bad tab
guest
Wanna post a correction for this tab? Suggest correction