Oops, an error
Loading. Please wait.

Intuición chords

178 views 3 this week
no commentswrite comment
1 2 3 4 5
3 more votes to show rating
add to favorites
×
Save as Personal and add changes to this tab that will be seen only by you. Learn more ›
×
You can save this tab as Personal to edit and correct it or add notes. All changes will be seen only by you. Learn more »
launch autoscroll
font size
0
reset
transpose
0
reset
display chords
guitar tuner
edit
Autoscroll
slow
fast
+/-
esc
set tempo
stop
Strumming
There is no strumming pattern for this song yet. and get +5 IQ
Intro:

E:----7-99---7------------11-11----------------12----12-11----------|
B:--9------9---9-7--12-14-------12-14-12--9-12----12-------12^9-7-9-|
G:------------------------------------------------------------------|
D:------------------------------------------------------------------|
A:------------------------------------------------------------------|
E:------------------------------------------------------------------|X2


F#m - G#m - A - F#m X2

           F#m
Me vi murmurando entre los demas
                  G#m
No me entra en el cuerpo mi mediocridad
                  A
Ni esa gris excusa de estabilidad
               G#m
Que recomendaban para nuestro mal


Y tuve que salir a caminar
Tuve que buscar una señal
Y aunque no te parezca real
Una guerra interna tuve que librar


Y la calle revela esa confusion
Mi sonrisa ficticia que esconde dolor
Algunos sospechan de esta situacion
Y no ven la vida por televisión


   F#m
Diles que si se puede
    G#m
Y Dime que si se puede
    A
Diles que si se puede
     G#m
Y Dime que si se puede hoy
 F#m            G#m
Que si se puede hoy
 A              G#m
Que si se puede hoy


           F#m
Y pudimos amarnos pero no se dio
            G#m
Y llorando nostalgias me dijiste adiós
             A
hoy no entiendo como fue que sucedió
            G#m
Que sobrevivió el ego y se murio el amor


Tuve que salir a caminar
Tuve que buscar una señal
Quedarme dormido y despertar
Y poder mirarme desde otro lugar


Y hurgando en el fondo desde tu interior
Todos los enigmas tienen solución
Hasta lo invisible cobra dimensión
Descubre el tesoro que hay en tu intuición


Diles que si se puede
Y Dime que si se puede
Diles que si se puede
Y Dime que si se puede hoy
Que si se puede hoy
Que si se puede hoy


F#m - G#m - A - F#m X2

E:-0---0---0-4-2------2-0-----------------------|
B:---2---2-------4--------2-0------2-0----------|
G:-----------------1----------1-4------1--------|
D:---------------------------------------4------|
A:----------------------------------------------|
E:----------------------------------------------|


Y pudimos amarnos pero no se dio
Y llorando nostalgias me dijiste adiós
hoy no entiendo como fue que sucedió
Que sobrevivió el ego y se murio el amor


Tuve que salir a caminar
Tuve que buscar una señal
Quedarme dormido y despertar
Y poder mirarme desde otro lugar


Y hurgando en el fondo desde tu interior
Todos los enigmas tienen solución
Hasta lo invisible cobra dimensión
Descubre el tesoro que hay en tu intuición


Diles que si se puede
Y Dime que si se puede
Diles que si se puede
Y Dime que si se puede

F#m - G#m - A  G#m  X2

E:---------------------------------------------------------------|
B:---------------------------------6------------------6----------|
G:-4^9^8-6-4-6-8-8^9^8-6-4---4^6-9---4-4---4----4^6-9---4-4---6--|
D:---------------------------------------4------------------4----|
A:---------------------------------------------------------------|
E:---------------------------------------------------------------|

Diles que si se puede
Y Dime que si se puede
Diles que si se puede
Y Dime que si se puede X2

Que si se puede hoy
Que si se puede hoy


Final: F#m - G#m - A  G#m

E:--9-9-99-7-7-77--7-7-7^9-9-------|
B:---------------------------------|
G----------------------------------|
D:---------------------------------|
A:---------------------------------|
E:---------------------------------|

            
            
Suggest correction
Creating personal tab
Creating personal tab
You can edit any tab online and save it as your Personal.

You can edit, replace or remove any tab part or add personal notes – all changes will be seen only by you.

Personal tabs can be accessed anytime from any device, even offline.
Learn more »
Give kudos to tab author, rate the tab!
1 2 3 4 5
comments
print report bad tab
guest
Wanna post a correction for this tab? Suggest correction