Oops, an error
Loading. Please wait.

Piénsalo tab

by Kannon
65 views 1 this week
no commentswrite comment
1 2 3 4 5
3 more votes to show rating
add to favorites
×
Save as Personal and add changes to this tab that will be seen only by you. Learn more ›
×
You can save this tab as Personal to edit and correct it or add notes. All changes will be seen only by you. Learn more »
launch autoscroll
font size
0
reset
how to read this tab
guitar tuner
edit
Autoscroll
slow
fast
+/-
esc
set tempo
stop
NOTACION

h= hammer on
p= pull off
>= mantener el sonido

-----------------------------------------------------------
-----------------------------------------------------------

AFINACION

Afinación en B (B,E,A,D,F#,B): afina todas las cuerdas de
la guitarra cinco semitonos menos

-----------------------------------------------------------
-----------------------------------------------------------


-----
INTRO
-----


1)


------------------------------------------------
------------------------------------------------
------------------------------------------------ (x2)
------------------------------------------------
-----15--14------------15--14--13h14------------
--0----------0h3p0--0-----------------0--0h3p0--


2)


----------------------
----------------------
--4----4--4-----------
--2----2--2-----------
--2----2--2-----------
---------------0h3p0--

-------------------------
-------------------------
--4----4--4--------------
--2----2--2--------------
--2----2--2--------------
---------------0--0h3p0--

----------------------------
----------------------------
--4----4--4--4--------------
--2----2--2--2--------------
--2----2--2--2--------------
------------------0--0h3p0--

-------------------
-------------------
--4----4--4--4--4--
--2----2--2--2--2--
--2----2--2--2--2--
-------------------


3) (x2)


---------------------------
---------------------------
---------------------------
---------------------------
---------------------------
--0-0--0-0--0-0--0-0--3-3--

-------------------------------
-------------------------------
----------------------5p0h4p0--
-------------------------------
-------------------------------
--0-0--0-0--0-0--0-0-----------


-------
VERSO 1
-------


1) (Miro, a mi alrededor respiro...) (x4)


Guitarra 1
----------

-----------------------------------------
-----------------------------------------
-----------------------------------------
-----------------------------------------
-----15--14--13h14-----15--14-----13h14--
--0-----------------0----------0---------

-----------------------------------------
-----------------------------------------
-----------------------------------------
-----------------------------------------
-----15--14--13h14-----17--15-----14h15--
--0-----------------0----------0---------


Guitarra 2 [Con efectos]
----------

--0>--7>--0--6h7--
------------------
------------------
------------------
------------------
------------------

--0>--7>--0--7h8--
------------------
------------------
------------------
------------------
------------------


2)


Guitarra 1
----------

Tocar lo mismo que la parte 1) de la Intro


Guitarra 2 [Con efectos]
----------

-----------
-----------
----------- (x4)
-----------
-----2--2--
--0--0--0--

-----------
-----------
--5p0h4p0--
-----------
-----------
-----------


------
CHORUS
------


1) (Piénsalo, piénsalo...)


Tocar lo mismo que la parte 3) de la Intro


2) (No estás sólo para lo que tú quieres...)


--------------------------------
--------------------------------
--------------------------------
--------------------------------
----------------------0-0--1-1--
--3-3--3-3--3-3--3-3------------

--------------------------------
--------------------------------
--------------------------------
--------------------------------
--0-0--0-0--0-0--0-0--0-0--1-1--
--------------------------------


3) (Piénsalo, mira...)


---------------------------
---------------------------
---------------------------
---------------------------
---------------------------
--0-0--0-0--0-0--0-0--3-3--

-------------------------------
-------------------------------
----------------------5p0h4p0--
-------------------------------
-------------------------------
--0-0--0-0--0-0--0-0-----------

--------------------------------
--------------------------------
--------------------------------
--------------------------------
----------------------0-0--1-1--
--3-3--3-3--3-3--3-3------------

--------------------------------
--------------------------------
--------------------------------
--------------------------------
--0-0--0-0--0-0--0-0--0-0--1-1--
--------------------------------


-----
FINAL
-----


1)


Guitarra 1
----------

---------------------------------------
---------------------------------------
--4-4-----4-4-----4-4-----4-4-----7-7--
--2-2-----2-2-----2-2-----2-2-----5-5--
--2-2-----2-2-----2-2-----2-2-----5-5--
-------0-------0-------0-------0-------


Guitarra 2 [Con efectos]
----------

--0-0--0-0--0-0--0-0-------
--0-0--0-0--0-0--0-0--3-3--
----------------------0-0--
---------------------------
---------------------------
---------------------------


2)


Guitarra 1
----------

---------------------------------------------
---------------------------------------------
---------------------------------------------
---------------------------------------------
--2-2-----2-2-----2-2-----2-2------2-2--3-3--
--0-0--0--0-0--0--0-0--0--0-0--0---0-0--1-1--

---------------------------------------------
---------------------------------------------
---------------------------------------------
---------------------------------------------
--2-2-----2-2-----2-2-----2-2------5-5--3-3--
--0-0--0--0-0--0--0-0--0--0-0--0---3-3--1-1--


Guitarra 2 [Con efectos]
----------

--0-0--0-0--0-0--0-0---0-0--1-1--
--0-0--0-0--0-0--0-0---0-0--1-1--
---------------------------------
---------------------------------
---------------------------------
---------------------------------

--0-0--0-0--0-0--0-0---3-3--1-1--
--0-0--0-0--0-0--0-0---3-3--1-1--
---------------------------------
---------------------------------
---------------------------------
---------------------------------


-----------------------------------------------------------
-----------------------------------------------------------

            
            
Suggest correction
Creating personal tab
Creating personal tab
You can edit any tab online and save it as your Personal.

You can edit, replace or remove any tab part or add personal notes – all changes will be seen only by you.

Personal tabs can be accessed anytime from any device, even offline.
Learn more »
Give kudos to tab author, rate the tab!
1 2 3 4 5
comments
print report bad tab
guest
Wanna post a correction for this tab? Suggest correction